>
 >
Your Ex-Lover Is Dead 2

Your Ex-Lover Is Dead 2 Guitar Tabs

Stars - Your Ex-Lover Is Dead 2 chords, tabs, tablatures, lyrics

Guitar lessons | Add/correct | Request | Top 50 tabs Artists:  A B C D E F G H I J K L M N O P Q R S T U V W X Y Z 0-9

Your Ex-Lover Is Dead 2 Guitar Tabs – Stars

CD, Sheet music, Poster

Do you like Your Ex-Lover Is Dead 2? Share with your friends now
ChordsTabs v2
-------------------------------------------------------------------------------
                             YOUR EX-LOVER IS DEAD - Stars
-------------------------------------------------------------------------------

Tuning: Standard 

Notes:

1) "God that was..." begins here --> * for verse 1, as does "This scar..." for verse 2. 
"strange..." in verse 1 falls on the C chord, as does "fleck..." for verse 2.

2) Listen for the strumming, it's consistent for most of the song, but it does change.

3) Kelly i'm not sorry I met you. I'm not sorry it's over.

######################################

[Chords used]

 Am   E   C   F2  F   G  
e|0---0---0---0---1---3---|
B|1---0---1---1---1---3---|
G|2---1---0---2---2---4---|
D|2---2---2---3---3---5---|
A|0---2---3---3---3---5---|
E|x---0---0---x---1---3---|

#######################################

[Intro]
(said before anything is played) 
When there's nothing left to burn, you have to set yourself on fire. 

 Am   E   C        F2   F   F   C
e|0---0---0---0-----0---1---1---0--| 
B|1---0---1-----1---1---1---1---1--|  
G|2---1---0---------2---2---2---0--| x2
D|2---2---2---------3---3---3---2--|    
A|0---2---3---------3---3---3---3--| 
E|x---0---0---------x---1---1---0--|


[Interlude]
(keep fingers on C)   
                      * 
e|-------------------------------------|
B|------1-------------1---1---1--------|
G|----0---0---------0---0---0---0------| x4
D|--2-------2-----2----------------2---|
A|3-----------3-3--------------------3-|
E|-------------------------------------|


[Verse 1]
             C                  F  
God that was strange to see you again
F          C                F 
Introduced by a friend of a friend
F               C                      F
Smiled and said "yes I think we've met before"
F       C                     F  
In that instant it started to pour
           F                    C
Captured a taxi despite all the rain
C           F                   C 
We drove in silence across Pont Champlain
C               F                      C
And all of that time you thought I was sad
      C         F             C
I was trying to remember your name

 
[Interlude]
(keep fingers on C)   
                      * 
e|-------------------------------------|
B|------1-------------1---1---1--------|
G|----0---0---------0---0---0---0------| x4
D|--2-------2-----2----------------2---|
A|3-----------3-3--------------------3-|
E|-------------------------------------|


[Verse 2]
               C                     F 
This scar is a fleck on my porcelain skin
F                  C                         F 
You tried to reach deep but you couldn't get in
F              C                          F 
And now you're outside me you see all the beauty
F               C           F
Repent all your sin .........
                 F                           C 
It's nothing but time and a face that you'll lose
C          F                        C         
I chose to feel it and you couldn't choose
C                F                           C
I'll write you a postcard, I'll send you the news
         C              F          G    F  


[Bridge] 
(same as the intro, this is played a total of 4x, first time no singing)
 
 Am   E   C        F2   F   F   C
e|0---0---0---0-----0---1---1---0--| 
B|1---0---1-----1---1---1---1---1--|  
G|2---1---0---------2---2---2---0--| 
D|2---2---2---------3---3---3---2--|    
A|0---2---3---------3---3---3---3--| 
E|x---0---0---------x---1---1---0--|

Am   E       C F2          F     F    C 
Live through this, and you won't look back.  x3


[Verse 3]

C, F, C, F,                     C                      F
            There's one thing I want to say so I'll be brave
F               C                     F  
You were what I wanted, I gave what I gave
F               C 
I'm not sorry I met you
C             F 
I'm not sorry it's over
F                     C                    F
I'm not sorry there's nothing to save.......
                      C  
I'm not sorry there's nothing to save
F, C, F, C, F, C, F, C, F, C, F, C, F, C, F, C


[Outro]
(same as the intro and bridge, except it's only played once)

 Am   E   C        F2   F   F   C
e|0---0---0---0-----0---1---1---0--| 
B|1---0---1-----1---1---1---1---1--|  
G|2---1---0---------2---2---2---0--| 
D|2---2---2---------3---3---3---2--|    
A|0---2---3---------3---3---3---3--| 
E|x---0---0---------x---1---1---0--|

| /  slide up
| \  slide down
| h  hammer-on
| p  pull-off
| ~  vibrato
| +  harmonic
| x  Mute note
===============================================================================





Comments


Popular Stars tabs & chords
Set Yourself On Fire Bass Tabs
The Ghost Of Genova Heights Bass Tabs
Heart Chords
The Big Fight Chords
Very Thing 1 Chords
We Don't Want Your Body 1 Chords
Dead Hearts Tabs
On Peak Hill Tabs
Dont Be Afraid To Sing Ukulele
I Died So I Could Haunt You Ukulele


Song lyrics



↑ Back to top | Tablatures and chords are parodies/interpretations of the original songs. You may use it for private study, scholarship, research or language learning purposes only
© 2014 AZChords.com Contact us | Privacy policy | DMCA | Add/correct tabs | Request tabs | Top 50 tabs