» » »

What The Snowman Learned About Love Bass tabs (ver.1)

Artists:  A B C D E F G H I J K L M N O P Q R S T U V W X Y Z # 

What The Snowman Learned About Love Bass tabs (ver.1)

Stars
Rating:
4/5 (1 vote)

Hard to play? Try these video lessons and learn fast.
                Intro/verse
G|-------------------------------------------------------------------------|
D|-------------------------------------------------------------------------|
A|------3--------3---------------------------------------------------------|
E|--3--3-3---3--3-3--------------------------------------------------------|

At 1:19
G|---10-12--10----10-----10------------------------------------------------|
D|-10-----------10--10-13--10----------------------------------------------|
A|--------------------------11--10--------10-13----13~---------------------|
E|---------------------------------11-13-----------------------------------|


Suggestions?  help me complete this tab. it's not quite all here.
            
Hard to play? Try these video lessons and learn fast. | Correct




comments powered by Disqus
↑ Back to top | Tablatures and chords are parodies/interpretations of the original songs. You may use it for private study, scholarship, research or language learning purposes only