» » »

Night Starts Here Tabs (ver.1)

Artists:  A B C D E F G H I J K L M N O P Q R S T U V W X Y Z # 

Night Starts Here Tabs (ver.1)

Stars
Rating:
1/5 (1 vote)

Tabs too difficult? Try these video lessons and learn fast.
                

Tuning: Standard (Low to High) E A D G B E


I'll put the song into riffs and you can listen to when they come in

Riff A
|------9--------------11-------------9------------4-------------|
|------9--------------11-------------9------------4-------------|
|------10-------------12-------------10-----------5-------------|
|------11-------------13-------------11-----------6-------------|
|------11-------------13-------------11-----------6-------------|
|---------------------------------------------------------------|

Riff B
|------------------------------------------|
|------10--12--13----10-------8------------|
|--10----------------------8------8--------|
|------------------------------------------|
|------------------------------------------|
|------------------------------------------|

Riff C

|---9---9----9--9------------11--11---11--11-------|
|---9---9----9--9------------11--11---11--11-------|
|---10--10--10--10-----------12--12---12--12-------|
|---11--11--11--11-----------13--13---13--13-------|
|--------------------------------------------------|
|--------------------------------------------------|

|----9--9----9---9--------------4--4--4--4----|
|----9--9----9---9--------------4--4--4--4----|
|---10--10--10--10--------------5--5--5--5----|
|---11--11--11--11--------------6--6--6--6----|
|---------------------------------------------|
|---------------------------------------------|

Riff D

|-----------------------------------------|
|-----------------------------------------|
|-----------------------------------------|
|-----------------------------------------|
|-----------------------------------------|
|----1x32----------9x16-------4x16--------|

Riff E

|-------------------------------------------|
|-------10--12-13---10---------11------8----|
|---10---------------------8-------10-------|
|-------------------------------------------|
|-------------------------------------------|
|-------------------------------------------|

Structure:

0:51 - 1:08       Riff A  x 2
1:08 - 1:16       Riff B  x 1
1:51 - 2:25       Riff A x 4
                  Riff C x 2 (stops at 2:08)
2:25 - 2:33       Riff B x 1
2:33 - 3:07       Riff D x 4
3:08 - 5:07       Riff A x 14 (starts fade out on 14)
                   Riff B x 14
                      Riff E x 8 (then just repeat the 2nd half till fadeout)
            
Tabs too difficult? Try these video lessons and learn fast.




comments powered by Disqus
↑ Back to top | Tablatures and chords are parodies/interpretations of the original songs. You may use it for private study, scholarship, research or language learning purposes only