» » »

Stars, The Ghost Of Genova Heights Bass tabs (ver.1)

Artists:  A B C D E F G H I J K L M N O P Q R S T U V W X Y Z # 

The Ghost Of Genova Heights Bass tabs (ver.1)

Stars Tabs
Rating:
5/5 (2 votes)
The Ghost Of Genova Heights lessons Tabs too difficult? Try these video lessons and learn fast
                STARS - THE GHOST OF GENOVA HEIGHTS



Verse
G|-------------------------------------------------------------|    |----|
D|-------------------------------------------------------------|    |7-8-|
A|-12/8-8---12/8-8---10/6-6---10/6-6-----5-5---5-5---5-5---5-5-| x4 |----|
E|-------------------------------------5-----------------------|    |----|



Chorus
G|-----------------------------------------------------------------------|
D|-----7-8-----7-8-----7-8-----8-7-----7-8-----7-8-10---8---8---8--------|
A|-6-6-----6-6-----5-5-----5-5-----8-8-----8-8---------------------------| x2
E|----------------------------------------------------8---8---8----------|



Bridge
G|-----------------------------------------------------------------------|
D|---6---6---6-8---------------------------------------------------------|
A|-8---8---------10-8-6-----6-8-----6--8/-------6--8/--------------------|
E|------------------------6-------6-------1-1---------1-1----------------|

G|-----------------------------------------------------------------------|
D|---6---6---6-8---------------------------------------------------------|
A|-8---8---------10-8-6-----6-8-----6--8/--------------------------------|
E|------------------------6-------6-------1-1---------1-1----------------|

G|-----------------------------------------------------------------------|
D|---6---6---6-8---------------------------------------------------------|
A|-8---8---------10-8-6-----6-8-----6--8/-------6--8/--------------------|
E|------------------------6-------6-------1-1---------1-1----------------|

G|-----------------------------------------------------------------------|
D|-----6-----6-8---------------------------------------------------------|
A|---------8-----10-8-6-----6-8-----6--8/-------6--8---------------------|
E|------------------------6-------6-------1------------------------------|

                                                             ------------|
                                                2nd bridge   ------------|
                                                end with :   --------17/-|
                                                             ------------|


Verse (x6 instead of x4)
Chorus
Bridge


Outro
G|-----------------------------------------------------------------------|
D|--------------------------8--8-10--------------------------------------|
A|-6-6-----6-6-----5-5---5/8--8----8-8-----8-8-----3-3-----3--5----------|
E|-------------------------------------------------------3---------------|

G|-----------------------------------------------------------------------|
D|-----------------------------------------------------------------------|
A|-6-6-----6-6-----5-5---5/8----10-8-8-----8-8-----3-3-----3--5----------|
E|-------6---------------------8---------8-------------------------------|

G|-----------------------------------------------------------------------|
D|--------------------------8--8-10--------------------------------------|
A|-6-6-----6-6-----5-5---5/8--8----8-8-----8-8-----3-3-----3--5----------|
E|-------6-------------------------------8-------------------------------|

G|-----------------------------------------------------------------------|
D|--------------------------8--8-10-----------------------------5--------|
A|-6-6-----6-6-----5-5---5/8--8----8-8-----8-8-----3-3-----3--3----------|
E|-------6-------------------------------8-------------------------------|

G|-----------------------------------------------------------------------|
D|-----------------------------------------------------------------------|
A|-6-6-----6-6-----5-5---5---------8-8-----8-8-----3-3-----3-4-5---------|
E|-------6-----------------6-6---6-------8---------------3-------3-------|

G|-----------------------------------------------------------------------|
D|-----------------------------------------------------------------------|
A|-6-6-----6-6-----5-5-------------8-8-----8-8-----3-3-----3--5----------|
E|-------6-----------------6-6---6-------8-------------------------------|

G|------------\
D|-------------\
A|-6-6-----6-6--\ ...
E|-------6-------\
            
Submit corrections

comments powered by Disqus
↑ Back to top | Stars Bass for The Ghost Of Genova Heights. Lyrics for acoustic guitar and electric guitar. Tablatures and chords are parodies/interpretations of the original songs. You may use it for private study, scholarship, research or language learning purposes only