» » »

Take Me To The Riot Tabs (ver.1)

Artists:  A B C D E F G H I J K L M N O P Q R S T U V W X Y Z # 

Take Me To The Riot Tabs (ver.1)

Stars
Rating:
3/5 (6 votes)

Hard to play? Try these video lessons and learn fast.
                Tuning: Drop D

The 2nd guitar part is just the little piano riffs tabbed out incase you want them. 
I wrote out the chords in clusters to try to make counting easier. They're written how I 
count them anyway. I hope this helps!


INTRO X1:
guitar 1:
e|---------------------------------------------------------------------------|
B|---------------------------------------------------------------------------|
G|---------------------------------------------------------------------------|
D|--5-5-5-5--5-5-5-5--1-1-1-1--1-1-1-1--3-3-3-3--3-3-3-3--3-3-3-3--3-3-3-3---|
A|--5-5-5-5--5-5-5-5--1-1-1-1--1-1-1-1--3-3-3-3--3-3-3-3--3-3-3-3--3-3-3-3---|
D|--5-5-5-5--5-5-5-5--1-1-1-1--1-1-1-1--3-3-3-3--3-3-3-3--3-3-3-3--3-3-3-3---|
guitar 2:
e|---------------------------------------------------------------------------|
B|---------------------------------------------------------------------------|
G|--------------------------------------------------------------7------------|
D|--------------------------------------------------------8-----------7----5-|
A|---------------------------------------------------------------------------|
D|---------------------------------------------------------------------------|

VERSE X3:
guitar 1:
e|---------------------------------------------------------------------------|
B|---------------------------------------------------------------------------|
G|---------------------------------------------------------------------------|
D|--5-5-5-5--5-5-5-5--1-1-1-1--1-1-1-1--3-3-3-3--3-3-3-3--3-3-3-3--3-3-3-3---|
A|--5-5-5-5--5-5-5-5--1-1-1-1--1-1-1-1--3-3-3-3--3-3-3-3--3-3-3-3--3-3-3-3---|
D|--5-5-5-5--5-5-5-5--1-1-1-1--1-1-1-1--3-3-3-3--3-3-3-3--3-3-3-3--3-3-3-3---|
guitar 2:
e|---------------------------------------------------------------------------|
B|---------------------------------------------------------------------6-----|
G|--------------------------------------------------------5-----7------------|
D|---------------------------------------------------------------------------|
A|---------------------------------------------------------------------------|
D|---------------------------------------------------------------------------|

guitar 1:
e|---------------------------------------------------------------------------|
B|---------------------------------------------------------------------------|
G|---------------------------------------------------------------------------|
D|--5-5-5-5--5-5-5-5--1-1-1-1--1-1-1-1--3-3-3-3--3-3-3-3--3-3-3-3--3-3-3-3---|
A|--5-5-5-5--5-5-5-5--1-1-1-1--1-1-1-1--3-3-3-3--3-3-3-3--3-3-3-3--3-3-3-3---|
D|--5-5-5-5--5-5-5-5--1-1-1-1--1-1-1-1--3-3-3-3--3-3-3-3--3-3-3-3--3-3-3-3---|
guitar 2:
e|---------------------------------------------------------------------------|
B|---------------------------------------------------------------------------|
G|--------------------------------------------------------5-----7------------|
D|---------------------------------------------------------------------7---5-|
A|---------------------------------------------------------------------------|
D|---------------------------------------------------------------------------|

BRIDGE X2:
guitar 1:
e|---------------------------------------------------------------------------|
B|--11-11-11-11-11-----------------------------------------------------------|
G|--10-10-10-10-10---10-10-10-10-10---12-12-12-12-12---8-8-8-8-8-------------|
D|--8--8--8--8--8----10-10-10-10-10---12-12-12-12-12---8-8-8-8-8-------------|
A|-------------------8--8--8--8--8----10-10-10-10-10---6-6-6-6-6-------------|
D|---------------------------------------------------------------------------|

CHORUS X2:
guitar 1:
e|---------------------------------------------------------------------------|
B|--11-11-11--11-11-11--11-11-11-11------------------------------------------|
G|--10-10-10--10-10-10--10-10-10-10--10-10-10--10-10-10--10-10-10-10---------|
D|--8--8--8---8--8--8---8--8--8--8---10-10-10--10-10-10--10-10-10-10---------|
A|-----------------------------------8--8--8---8--8--8---8--8--8--8----------|
D|---------------------------------------------------------------------------|

guitar 1:
e|---------------------------------------------------------------------------|
B|---------------------------------------------------------------------------|
G|--12-12-12--12-12-12--12-12-12-12--8-8-8--8-8-8--8-8-8-8-------------------|
D|--12-12-12--12-12-12--12-12-12-12--8-8-8--8-8-8--8-8-8-8-------------------|
A|--10-10-10--10-10-10--10-10-10-10--6-6-6--6-6-6--6-6-6-6-------------------|
D|---------------------------------------------------------------------------|

SOLO X1:
guitar 1:
e|---------------------------------------------------------------------------|
B|---------------------------------------------------------------------------|
G|---------------------------------------------------------------------------|
D|--5-5-5-5--5-5-5-5--1-1-1-1--1-1-1-1--3-3-3-3--3-3-3-3--3-3-3-3--3-3-3-3---|
A|--5-5-5-5--5-5-5-5--1-1-1-1--1-1-1-1--3-3-3-3--3-3-3-3--3-3-3-3--3-3-3-3---|
D|--5-5-5-5--5-5-5-5--1-1-1-1--1-1-1-1--3-3-3-3--3-3-3-3--3-3-3-3--3-3-3-3---|
guitar 2:
e|---------------------------------------------------------------------------|
B|-----------------------------8---11-----10--------------13-----------------|
G|---------------7----8---10---------------------10--------------------------|
D|---------------------------------------------------------------------------|
A|---------------------------------------------------------------------------|
D|---------------------------------------------------------------------------|

guitar 1:
e|---------------------------------------------------------------------------|
B|---------------------------------------------------------------------------|
G|---------------------------------------------------------------------------|
D|--5-5-5-5--5-5-5-5--1-1-1-1--1-1-1-1--3-3-3-3--3-3-3-3--3-3-3-3--3-3-3-3---|
A|--5-5-5-5--5-5-5-5--1-1-1-1--1-1-1-1--3-3-3-3--3-3-3-3--3-3-3-3--3-3-3-3---|
D|--5-5-5-5--5-5-5-5--1-1-1-1--1-1-1-1--3-3-3-3--3-3-3-3--3-3-3-3--3-3-3-3---|
guitar 2:
e|---------------------------------------------------------------------------|
B|-----------13-11-------------13-11-----------------------------------------|
G|--------------------10/8--------------10/7---------7-8-10-----8----------7-|
D|---------------------------------------------------------------------------|
A|---------------------------------------------------------------------------|
D|---------------------------------------------------------------------------|


VERSE X3


BRIDGE X2


CHORUS X6


end on:
e|------|
B|------|
G|--12--|
D|--12--|
A|--10--|
D|------|

:)
            
Hard to play? Try these video lessons and learn fast. | Correct




comments powered by Disqus
↑ Back to top | Tablatures and chords are parodies/interpretations of the original songs. You may use it for private study, scholarship, research or language learning purposes only