» » »

Sleep Tonight Tabs (ver.1)

Artists:  A B C D E F G H I J K L M N O P Q R S T U V W X Y Z # 

Sleep Tonight Tabs (ver.1)

Stars
Rating:
0/5 (0 votes)

Hard to play? Try these video lessons and learn fast.
                -------------------------------------------------------------------------------
-------------------------------------------------------------------------------

(I figured this out with help from a friend)

Main chording
E|-6--4--2--x--|
A|-8--6--4--4--|
D|-8--6--4--6--|
G|-6--5--3--6--|
B|-6--4--2-----|
e|-6--4--2-----|

Chorus
E|-x--x--x--x--x--x---|
A|-6--4--3--6--4--2---|
D|-8--6--5--8--6--4---|
G|-8--6--5--8--6--4---|
B|-------4------------|
e|--------------------|

End riff
E|-x--x--x---x---x--|
A|-6--2--8---9---11-|
D|-8--4--10--11--13-|
G|-8--4--10--11--13-|
B|------------------|
e|------------------|
            
Hard to play? Try these video lessons and learn fast. | Correct




comments powered by Disqus
↑ Back to top | Tablatures and chords are parodies/interpretations of the original songs. You may use it for private study, scholarship, research or language learning purposes only