» » »

Set Yourself On Fire Bass tabs (ver.1)

Artists:  A B C D E F G H I J K L M N O P Q R S T U V W X Y Z # 

Set Yourself On Fire Bass tabs (ver.1)

Stars
Rating:
5/5 (1 vote)

Hard to play? Try these video lessons and learn fast.
                STARS - SET YOURSELF ON FIRE



Intro : no bass


Verse
G|-------15----------15-------10-------10-------8-------8-------8-------8-------|
D|-13-13----13-13-13------8-8----8-8-8----8-8-8---8-8-8---8-6-6---6-6-6---6-----|
A|------------------------------------------------------------------------------| x6
E|------------------------------------------------------------------------------|



Chorus
G|------------------------------------------------------------------------------|
D|-9-9---9-9-9---9-9-9---9-9-9-9---10-10---10-10-10---10-10-10---10-10-10-10----|
A|-------------------------------9-------------------------------------------9--|
E|------------------------------------------------------------------------------|

G|------------------------------------------------------------------------------|
D|-9-9---9-9-9---9-9-9---9-9-9-9---10-10---10-10-10---10---10-----10-----10-----|
A|-------------------------------9----------------------------------------------|
E|-------------------------------------------------------8----8-8----8-8--------|

G|------------------------------------------------------------------------------|
D|-9-9---9-9-9---9-9-9---9-9-9-9---10-10---10-10-10---10-10-10---10-10-10-10-10-|
A|-------------------------------9----------------------------------------------|
E|------------------------------------------------------------------------------|

G|---------------------------------------|
D|-9-9-9-9-9-9-9-9-8-8-8-8-8-8-8-8-------|
A|---------------------------------------|
E|---------------------------------------|


Verse x6
Chorus


Bridge
G|---------------------------------------|
D|---------------------------------------|
A|-6-------6-------6-------6-------------|
E|---------------------------------------|


Verse x4
Chorus (without the variation of the second part, just play the first thing twice)


Outro
G|-------------------------------------10-8-----------8--------------8----------|
D|------------------------------------------10----------------------------------|
A|------------------------------------------------------------------------------|
E|------------------------------------------------------------------------------|

G|-----------8-10-12---10-8----------8h10-8-----------8-----8-8------8----------|
D|------8-10--------------------------------10------------8--------8------------|
A|-8-10-------------------------------------------------------------------------|
E|------------------------------------------------------------------------------|

G|-----------8-10-12---10-8--------------8-10---------8----------13-12----------|
D|------8-10----------------------6-8-10--------10---------------------13-------|
A|-8-10-----------------------6-8-----------------------------------------13-11-|
E|------------------------------------------------------------------------------|

G|-----------8-10-12---10-8------------10-8-----------8-----8-8-----------------|
D|------8-10--------------------------------10------------8--------8------------|
A|-8-10--------------------------------------------------------------6----------|
E|------------------------------------------------------------------------------|

G|-----------8-10-12---10-8--------------8-10--8------8------8-8-13-12----------|
D|------8-10----------------------6-8-10---------10-8------8-----------13-------|
A|-8-10-----------------------6-8-----------------------------------------13-11-|
E|------------------------------------------------------------------------------|

G|-----------8-10-12---10-8------------10-8-------------------------------------|
D|------8-10--------------------------------10----------------------------------|
A|-8-10-----------------------------------------------6-----6-6------6------6-6-|
E|--------------------------------------------------------6--------6------6-----|

G|-----------8-10-12---10-8------------10-8-----------8-----8-8-----------------|
D|------8-10----------------------------------10-8--------8--------8------------|
A|-8-10--------------------------------------------------------------6------6---|
E|------------------------------------------------------------------------6-----|

G|-----------8-10-12---10-8--------------8-10---------8-------------------------|
D|------8-10----------------------6-8-10--------10------------------------------|
A|-8-10-----------------------6-8-----------------------------------------------|
E|------------------------------------------------------------------------------|
            
Hard to play? Try these video lessons and learn fast. | Correct




comments powered by Disqus
↑ Back to top | Tablatures and chords are parodies/interpretations of the original songs. You may use it for private study, scholarship, research or language learning purposes only