» » »

Stars, Sad Robot Tabs (ver.1)

Artists:  A B C D E F G H I J K L M N O P Q R S T U V W X Y Z # 

Sad Robot Tabs (ver.1)

Stars Tabs
 Rating:
4/5 (4 votes)
Sad Robot lessons Tabs too difficult? Try these video lessons and learn fast
                Arist: Stars

Standard Tuning
Capo 5


Intro/Verse
e|---0-----0------0------0------0-0-----0------0------0------0----|
B|-------1------1------1------1-------1------1------1------1------|
G|-----2------2------2------2-------0------0------0------0--------|
D|----------------------------------------------------------------|
A|----------------------------------------------------------------|
E|----------------------------------------------------------------|
    Il pleut..                   Je pleure..

Chorus
e|---1-----0------0------0----------------------------0-----------|
B|-----1------1------1------1---3-------3-------1h3-----3~--------|
G|---------------------------------0-------0--------0-------------|
D|-------3------3------2------2------0-------0--------------------|
A|----------------------------------------------------------------|
E|----------------------------------------------------------------|
 J'ai peur      que je vais     rouiller        ce soir

Bridge/Outro
e|---------0------0------0-------0--0------0------0------0--------|
B|-----0h1----0h1----0h1-----0h1------1------1------1------1------|
G|--------------------------------------2------2------2------2----|
D|---3--------3------3-------3------------------------------------|
A|----------------------------------------------------------------|
E|----------------------------------------------------------------|
     Mon coeur...

e|---------1------1-------1---1---1-------1------1------1--0---------0~---|
B|-----1------1------1----------------1------1------1---------3~-----1~---|
G|-------2------------------------------2----------------------------0~---|
D|---0----------0------0----0---0---3----------3------3--------------2~---|
A|-------------------------------------------------------------------3~---|
E|-------------------------------------------------------------------0~---|
  changera      de l'acier          a la poussiere


Progression

Intro/Verse x4
Chorus
Intro/Verse x4
Chorus x4
Bridge/Outro


Chords:

   Am        Am
Il pleut, il pleut,
   C          C
Je pleure, je pleure,

   Am        Am
Il pleut, il pleut,
   C          C
Je pleure, je pleure,

     F           C        G       C
J'ai peur que je vais roullier ce soir

   Am        Am
Il pleut, il pleut,
   C          C
Je pleure, je pleure,

   Am        Am
Il pleut, il pleut,
   C          C
Je pleure, je pleure,

     F        C   G              Am
J'ai peur que mon temps soit expiree,
    F        C    G             Am
J'espere que vous viendrez me secher
    F        C    G             Am
J'espere que vous pouvez me reperer
     F           C        G       C
J'ai peur que je vais roullier ce soir

    Em     Am
Mon coeur,
      F               G             C
Changera de l'acier a la poussiere
            
Submit corrections

comments powered by Disqus
↑ Back to top | Stars Tabs for Sad Robot. Lyrics for acoustic guitar and electric guitar. Tablatures and chords are parodies/interpretations of the original songs. You may use it for private study, scholarship, research or language learning purposes only