>
 >
Reunion

Reunion Guitar Tabs

Stars - Reunion chords, tabs, tablatures, lyrics

Guitar lessons | Add/correct | Request | Top 50 tabs Artists:  A B C D E F G H I J K L M N O P Q R S T U V W X Y Z 0-9

Reunion Guitar Tabs – Stars

CD, Sheet music, Poster

Do you like Reunion? Share with your friends now
Bass TabsTabs
-------------------------------------------------------------------------------
-------------------------------------------------------------------------------

Tuning: Standard

  Intro
e|-0-0-0-0-0-0-0-0-0-0-0-0-0-0-0-0-|    |----0-0-0-0---0-0-0-0---------------|
B|-8x8x6x6x5x5x3x3x5x5x6x6x5\3x3x3-|    |------------------------------------|
G|---------------------------------| x3 |-4h5-5-5-5-4h5-5-4-0-5--------------|
D|---------------------------------|    |------------------------------------|
A|---------------------------------|    |------------------------------------|
E|---------------------------------|    |------------------------------------|
   quick stops after every note
    but let e string continue to ring

  Verse
e|----------------------------------|
B|----------------------------------|
G|-----------rest-------------------|
D|----------------------------------|
A|----------------------------------|
E|----------------------------------|

e|-----0-------0-------0-------0----|
B|---0---0---0---0---0---0---0---0--|
G|-5-------5-------4------/7--------|
D|----------------------------------|
A|----------------------------------|
E|----------------------------------|

Prechorus
e|----------------------------------|
B|----------------------------------|
G|-----------rest-------------------|
D|----------------------------------|
A|----------------------------------|
E|----------------------------------|

  Chorus (now, there are a few different ways to play this; if 
           you've seen them live you'd know this, but this is what it sounds
		  like on the record)

chords: C, B, Am, G, F, Em, D, C

e|--------------------------------------------------|
B|--------------------------------------------------|
G|-17-17-16-16-14-14-12-12-10-10--9--9--7--7--5--5--| octaves (or turn the octaves
D|--x--x--x--x--x--x--x--x--x--x--x--x--x--x--x--x--|          into power chords)
A|-15-15-14-14-12-12-10-10--8--8--7--7--5--5--3--3--|
E|--------------------------------------------------|

e|-0-0-0-0-0-0-3-3-1-1-0-0-0-0-0-0-|
B|-1-1-1-1-1-1-3-3-1-1-0-0-3-3-1-1-|
G|-0-0-0-0-2-2-0-0-2-2-0-0-2-2-0-0-| various chords;                             
D|-2-2-2-2-2-2-0-0-3-3-2-2-0-0-2-2-|   you could even do all barre chords        
A|-3-3-2-2-0-0-2-2-3-3-2-2-----3-3-|                                             
E|-------------3-3-1-1-0-0---------|                                             
                                                                                 
| One solution I suggest if you have two
| guitarists is one plays chords or octaves
| on a clean channel (or light distortion) and
| the other tunes down to Drop D and plays the
| bass notes suggested with a heavier distortion.

e|---------------------------------|
B|---------------------------------|
G|---------------------------------| drop D tuning (DADGBe)
D|---------------------------------|
A|-3-3-2-2-0-0-----------------3-3-|
E|-------------5-5-3-3-2-2-0-0-----|

  Guitar Solo
e|-7x7x7x7x7x7x7x7x7x7x7x7h8-/10--|-------------------------------------|
B|-8x8x8x8x8x8x8x8x8x8x8x8--------|------5-6-8---8-6-5------------------|
G|--------------------------------|-xx5--5-5-5---5-5-5--xx7/9-7-5-------|
D|--------------------------------|-xx5---------------------------------|
A|--------------------------------|-xx3---------------------------------|
E|--------------------------------|-------------------------------------|

e|-7x7x7x7x7x7x7x7x7x7x7x7h8-/10--|-------------------------------------|
B|-8x8x8x8x8x8x8x8x8x8x8x8--------|------5-6-8---8-6-5------------------|
G|--------------------------------|-xx5--5-5-5---5-5-5--xx7/9-7-5-5~----|
D|--------------------------------|-xx5---------------------------------|
A|--------------------------------|-xx3---------------------------------|
E|--------------------------------|-------------------------------------|


| /  slide up
| \  slide down
| h  hammer-on
| p  pull-off
| ~  vibrato
| +  harmonic
| x  Mute note
===============================================================================





Comments


Popular Stars tabs & chords
Life Effect Bass Tabs
Petite Mort Bass Tabs
Set Yourself On Fire Bass Tabs
Window Bird Bass Tabs
In Our Bedroom After The War 1 Chords
Romantic Comedy Chords
Fixed Ukulele
In Our Bedroom After The War Ukulele
Up In Our Bedroom After The War Ukulele
Your Ex-lover Is Dead Ukulele


Song lyrics



↑ Back to top | Tablatures and chords are parodies/interpretations of the original songs. You may use it for private study, scholarship, research or language learning purposes only
© 2014 AZChords.com Contact us | Privacy policy | DMCA | Add/correct tabs | Request tabs | Top 50 tabs