» » »

Personal Tabs (ver.2)

Artists:  A B C D E F G H I J K L M N O P Q R S T U V W X Y Z # 

Personal Tabs (ver.2)

Stars
Rating:
5/5 (4 votes)

Hard to play? Try these video lessons and learn fast.
                Sorry about the roughness of it all, but this is the gist of the song. The = in the tabs 
change in chord. I kinda made up the last part, but I think it sounds good. Enjoy.

Intro & such
e|=----------=----------=----------=---------|
B|=--1-------=----------=----------=---------|
G|=------3-1-=--5-------=--5-------=--5-----3|
D|=3---3-----=------8-6-=------8-6-=----3-5--|
A|=----------=----6-----=4---4-----=---------|
E|=----------=4---------=----------=3--------|

The piano riff, if you can call it that
e|-----4-6-8-8---6---4-------------------------------|
B|-6-8---------6---4---2-1-1-2-1-------1-1-2-4-2-1---|
G|-------------------------------1---1-------------1-|
D|---------------------------------3-----------------| x2
A|---------------------------------------------------|
E|---------------------------------------------------|

Some verses later in the song (the same as intro, with a little extra bass)
e|----------------=---------------=---------------=---------------|
B|-----1----------=---------------=---------------=---------------|
G|---1-----3---1--=----5----------=----5----------=----5-------3--|
D|-3-----3---3---3=--------8---6--=--6-----8---6--=------3-5-----5|
A|----------------=--6---6--------=4-----4---4---4=--4-------4----|
E|----------------=4---------4---4=---------------=3--------------|
            
Hard to play? Try these video lessons and learn fast. | Correct




comments powered by Disqus
↑ Back to top | Tablatures and chords are parodies/interpretations of the original songs. You may use it for private study, scholarship, research or language learning purposes only