» » »

Stars, Moonlight Bass tabs (ver.1)

Artists:  A B C D E F G H I J K L M N O P Q R S T U V W X Y Z # 

Moonlight Bass tabs (ver.1)

Stars Tabs
Rating:
0/5 (0 votes)
Moonlight lessons Tabs too difficult? Try these video lessons and learn fast
                
Key:
> = Strum
\  = Slide Down
/ = Slide Up
h = Hammer On
p = Pull Off
* = Hold

Part A:

G-------------------------------------------------|
D-----2-4*-------------------------1-2*-2-2-------|
A-4-4------------3-4*-4-2-0*-0-2-2-----------2-3--|
E----------4-4-4----------------------------------|

G---------------------------------------|-1-2-1----|
D-----2-4*-------------------------1-2*-|------4-2-|
A-4-4------------3-4*-4-2-0*-0-2-2------|----------|
E----------4-4-4------------------------|----------|
                                         
Part B:

G--------------------------|-1-2-1----|
D---------1-2*-------------|------4-2-|
A-0-0-2-2--------------2-0-|----------|
E--------------0-0-0-0-----|----------|
                            **ENDING**
Structure:

* Part A x2

* Part B x4

* Part A x2

* Part B x2 (Include **ENDING**)

* Part A x2 (End on D|-2*- )

Add a few fills yourself and experiment with this great song.

"oooooo! ahhhh! oooo!"
            
Submit corrections

comments powered by Disqus
↑ Back to top | Stars Bass for Moonlight. Lyrics for acoustic guitar and electric guitar. Tablatures and chords are parodies/interpretations of the original songs. You may use it for private study, scholarship, research or language learning purposes only