» » »

Stars, Life Effect Bass tabs (ver.1)

Artists:  A B C D E F G H I J K L M N O P Q R S T U V W X Y Z # 

Life Effect Bass tabs (ver.1)

Stars Tabs
Rating:
5/5 (2 votes)
Life Effect lessons Tabs too difficult? Try these video lessons and learn fast
                STARS - LIFE EFFECT



Verse (no bass for 4 bars)
G|-------------------------------|       |-------------------------------|
D|-------------------------------|       |-------------------------------|
A|---------------6-6-----66------| x3    |---------------8---------------|
E|-6---6-66------------6---------|       |-6---6-66----------------------|



Chorus
G|-------------------------------------------------------------7---------|
D|-10-10-------------------10-12---8-8-----------------------------------|
A|---------10-----10-8---8---------------8-----8---6-6-----6-6-----------| x2
E|------------8----------------------------X-6-----------6---------------|

G|-----------------------------------------------------------------------|
D|-8---8--8---8--10--8---------------------------------------------------|
A|---------8------------8--6---6-----6---8-------------------------------| x2
E|---------------------------------6-------------------------------------|

G|-----------------------------------------------------------------------|
D|-----------------------------------------------------------------------|
A|-----------------------------------------------------------------------|
E|-6-------------------------------6-------------------------------------|



Verse (no bass for 2 bars)
G|-----------------------------------------------------------------------|
D|-----------------------------------------------------------------------|
A|-----------------6-------------------------------6---------------------|
E|-6-------------------------------6-------------------------------------|

G|-------------------------------|       |-------------------------------|
D|-------------------------------|       |-------------------------------|
A|---------------6-6-----66------| x3    |-8-----------------------------|
E|-6---6-66------------6---------|       |-------------------------------|



Chorus
G|-------------------------------------------------------------7---------|
D|-10-10-------------------10-12---8-8-----------------------------------|
A|---------10-----10-8---8---------------8-----8---6-6-----6-6-----------| x4
E|------------8----------------------------X-6-----------6---------------|

G|-----------------------------------------------------------------------|
D|-8---8--8---8--10--8---------------------------------------------------|
A|---------8------------8--6-------------5-------------------------------| x2
E|-----------------------------------------------------------------------|

G|-----------------------------------------------------------------------|
D|-----------------------------------------------------------------------|
A|-----------------------------------------------------------------------|
E|-6---------------------------------------------------------------------|
            

comments powered by Disqus
↑ Back to top | Stars Bass for Life Effect. Lyrics for acoustic guitar and electric guitar. Tablatures and chords are parodies/interpretations of the original songs. You may use it for private study, scholarship, research or language learning purposes only