» » »

Stars, Hum Tabs (ver.1)

Artists:  A B C D E F G H I J K L M N O P Q R S T U V W X Y Z # 

Hum Tabs (ver.1)

Stars Tabs
 Rating:
4/5 (4 votes)
Hum lessons Tabs too difficult? Try these video lessons and learn fast
                -----------------------------------------------------------------
Stars - HUM
-----------------------------------------------------------------

Tuning: Drop D

Listen to song for strumming patterns

Intro I (Clean)
e|-----------3---------------------------------------------------|
B|-----------2---------------------------------------------------|
G|-7----7----3---------------------------------------------------| 
D|-7----7----0---------------------------------------------------|
A|-5----4--------------------------------------------------------|
E|-5----4--------------------------------------------------------|

(Distort last chord)
e|-----------3---------------------------------------------------|
B|-----------2---------------------------------------------------|
G|-7----7----3---------------------------------------------------| 
D|-7----7----0---------------------------------------------------|
A|-5----4--------------------------------------------------------|
E|-5----4--------------------------------------------------------|

Intro II (Clean)
e|---------------------------------------------------------------|
B|---------------------------------------------------------------|
G|-11-/12\11-11-11-11-9-9-9-9------------------------------------| 
D|--------------------0-0-0-0------------------------------------|
A|-9-/10-\9--9--9--9--0-0-0-0------------------------------------|
E|---------------------------------------------------------------|

Verse (Same as Intro II with distortion)

Chorus 
e|-------------------------------------------------------------|
B|-------------------------------------------------------------|
G|-7----7------------------------------------------------------|
D|-7----7----0-0-0-2h4p2-0-0-0-2h4p2-0-0-0-2h4p2-0-0-0-2h4p2---|
A|-5----4----0-0-0-2h4p2-0-0-0-2h4p2-0-0-0-2h4p2-0-0-0-2h4p2---|
E|-5----4----0-0-0-2h4p2-0-0-0-2h4p2-0-0-0-2h4p2-0-0-0-2h4p2---|
             * * *       * * *       * * *       * * *
e|----------|--------------------12121212-----------------------|
B|----------|---------------------------------------------------|
G|-7---7----|--11-/12\11-11-11-11-9-9-9-9-----------------------| 
D|-7---7----|---------------------0-0-0-0-----------------------|
A|-5---4----|--9-/10-\9--9--9--9--0-0-0-0-----------------------|
E|-5---4----|---------------------------------------------------|

Bridge
e|---------------------------------------------------------------|
B|---------------------------------------------------------------|
G|---------------------------------------------------------------|
D|---------------------------------------------------------------|
A|-----5-----------7-----------7h9-------------------------------|
E|-0-7---7-5-0-5-7---9-7-0-7-9-----------------------------------|
   * *   * * * * *   * * * * * 

| /  slide up
| \  slide down
| h  hammer-on
| p  pull-off
| ~  vibrato
| +  harmonic
| x  Mute note
            
Submit corrections

comments powered by Disqus
↑ Back to top | Stars Tabs for Hum. Lyrics for acoustic guitar and electric guitar. Tablatures and chords are parodies/interpretations of the original songs. You may use it for private study, scholarship, research or language learning purposes only