» » »

Stars, Fixed Chords (ver.1)

Artists:  A B C D E F G H I J K L M N O P Q R S T U V W X Y Z # 

Fixed Chords (ver.1)

Stars Tabs
Rating:
0/5 (0 votes)
Hard to play? Try these video lessons and learn fast.
                Fixed by Stars

-Capo 3rd Fret-

F  xx3213
G  320003
Em 022000
Am x02210

I'm pretty sure the solo is correct but if you have any corrections for it please 
post them below. 
The slide up to 10 after is 8 is optional but it sounds cooler if you do the slide. 
I normally initiate the slide on the 6th fret
The 1,2,3 and 4s above the solo tab correspond to the fingers to help you out.
1=First finger
4=Pinky finger

I just switch between Em and Am during the "Is it your fault?" part, but, again I'm not sure.

And remember this song uses the capo on the 3rd fret.

Intro

F G Em Am x2

Verse 1

F                 G
What you want you are 
Em              Am
You always were 
F                 G
What you want you are 
Em              Am
You always were
F                       G    Em        Am
When the plans fall changing hands 
F                       G    Em        Am
What are the chances of winning? 

Chorus

G
Am    F                 G
You, you hold my heart 
Am    F                 G
You, you won't let up 
Am
After when I'm called 
F                       G
Touch turns into fisticuffs 
Am
It's all in your head 
F
Wonder if I'm fixed to cut 


Bridge Solo x2:
   1 1 4   1 4   1   3                    1 1 1 1 
e|---------------------------------------------------------------------------|
B|-----11----11--------------------------------------------------------------|
G|-8-8-----8-----8--/10-10-10-10-10-10-10-8-7-8-7-7--------------------------|
D|---------------------------------------------------------------------------|
A|---------------------------------------------------------------------------|
E|---------------------------------------------------------------------------|
   4  1 4  1 3    3  3  1   4  3
e|---------------------------------------------------------------------------||
B|-11---11-------------------------------------------------------------------||
G|----7----7------------6/7--------------------------------------------------||
D|-----------6/10-10-10-----10-9/10------------------------------------------||
A|---------------------------------------------------------------------------||
E|---------------------------------------------------------------------------||


Verse 2
  F          G            Em        Am
For its statistics in the collected whole 
  F          G                   Em       Am
We are the hunger that keeps you climbing walls 
  F          G             Em    Am
It's the one thing you can count on 
 F                  G
We all end floating away
 Em                 Am
We all end floating away

Chorus

G
Am    F                 G
You, you hold my heart 
Am    F                 G
You, you won't let up 
Am
After when I'm called 
F                       G
Touch turns into fisticuffs 
Am
It's all in your head 
F
Wonder if I'm fixed to cut

Em / Am (switch between these every pass)
Is it your fault?
Is it your fault? (repeat so many times)

Am (this is the momentary pause)

F  G                 Em     Am
You, you're sinking, so they say 
F  G                 Em      Am 
You, you're finished, so they say 
F  G                Em      Am
You, you're boring, so they say 
F  G             Em     Am (let ring)
You, I care when caring fades
            

comments powered by Disqus
↑ Back to top | Stars Chords for Fixed. Lyrics for acoustic guitar and electric guitar. Tablatures and chords are parodies/interpretations of the original songs. You may use it for private study, scholarship, research or language learning purposes only