» » »

Don't Be Afraid To Sing Bass tabs (ver.1)

Artists:  A B C D E F G H I J K L M N O P Q R S T U V W X Y Z # 

Don't Be Afraid To Sing Bass tabs (ver.1)

Stars
Rating:
0/5 (0 votes)

Hard to play? Try these video lessons and learn fast.
                -------------------------------------------------------------------------------
-------------------------------------------------------------------------------

Normal tuning

I've not bothered to even attempt the timing, but I don't think it really helps tabs 
much. Listen to the track, get a feel for it, this tab will tell you where your fingers go.

Bass kicks in after 2 bars with:

A|---10~~~~-9~~~~-12~~~~~----------------------------------|

Then into the main riff:

|-14-12-11-------------------------------------------------|
|o----------12----------12-----14----16----16----16--------|
|o--------------12-10-9-----12----14----14----14----12-11--|
|----------------------------------------------------------|


|----------------------------------------------------------|
|----12----12---12---12----14----14----14----14-----------o|
|-10----10----9----9----12----12----12----12--------------o|
|----------------------------------------------------------|

Some times, play this lick before repeat:
|----------------------------------------------------------|
|---------12----12----12----12----14----14----14----14-----|
|--7-9-10----10----10----10----12----12----12----12--------|
|-7--------------------------------------------------------|


|----------------------------------------------------------|
|--------11-12---------------------------------------------|
|-14~~~~-------12~~~~--------------------------------------|
|----------------------------------------------------------|

Good luck!
            
Hard to play? Try these video lessons and learn fast. | Correct




comments powered by Disqus
↑ Back to top | Tablatures and chords are parodies/interpretations of the original songs. You may use it for private study, scholarship, research or language learning purposes only