» » »

Stars, Ageless Beauty Tabs (ver.2)

Artists:  A B C D E F G H I J K L M N O P Q R S T U V W X Y Z # 

Ageless Beauty Tabs (ver.2)

Stars Tabs
 Rating:
4/5 (4 votes)
Ageless Beauty lessons Tabs too difficult? Try these video lessons and learn fast
                (Intro)

Standard Tuning: E A D G B E
Tempo: Moderately Fast
No Capo
Intermediate Distortion

e------------------------------------|
B------------------------------------|
G--8-8-8-8-8-8-8-8--8-8-8-8-8-8-8-8--|
D--8-8-8-8-8-8-8-8--8-8-8-8-8-8-8-8--|
A--6-6-6-6-6-6-6-6-\5-5-5-5-5-5-5-5--|
E------------------------------------|

e-------------------------------------------------------------------------|
B-------------------------------------------------------------------------|
G--5-5-5-5-5-5-5-5-5-5-5-5-5-5-5-5-5-\3-----------------------------------|
D--5-5-5-5-5-5-5-5-5-5-5-5-5-5-5-5-5-\3-\-6-6-6-6-6-6-6-6-6-6-6-6-6-6-6---|
A--3-3-3-3-3-3-3-3-3-3-3-3-3-3-3-3-3-\1-\-6-6-6-6-6-6-6-6-6-6-6-6-6-6-6---|
E---------------------------------------\-4-4-4-4-4-4-4-4-4-4-4-4-4-4-4---|

For the second line, these marks: \
            
Submit corrections

comments powered by Disqus
↑ Back to top | Stars Tabs for Ageless Beauty. Lyrics for acoustic guitar and electric guitar. Tablatures and chords are parodies/interpretations of the original songs. You may use it for private study, scholarship, research or language learning purposes only