» » »

Star Fucking Hipsters, Zombie Christ Tabs (ver.4)

Artists:  A B C D E F G H I J K L M N O P Q R S T U V W X Y Z # 

Zombie Christ Tabs (ver.4)

Star Fucking Hipsters Tabs
 Rating:
4/5 (4 votes)
Zombie Christ lessons Tabs too difficult? Try these video lessons and learn fast
                
   Intro #1
e|-------------------------------------------------------|
B|-------------------------------------------------------|
G|--5-5-----------------------8-8------------------------|
D|--5-5--2-3-5---6-6----------8-8--5-6-8---8-8-----------| x2
A|--3-3----------6-6--6-4-3---6-6----------8-8--8-6-5----|
E|---------------4-4-----------------------6-6-----------|

   Intro #2
e|--------------------------------------------------|
B|--------------------------------------------------|
G|--8-----10----12----13----------------------------|
D|--x-x6--x-x6--x-x6--x--x6-------------------------| x2
A|--6-----8-----10----11----------------------------|
E|--------------------------------------------------|

   Ska Chords/Verse
e|--3x3x3x3--4x4x4x4--6x6x6x6--6x6x6x6--------------|
B|--4x4x4x4--4x4x4x4--8x8x8x8--6x6x6x6--------------|
G|--5x5x5x5--5x5x5x5--8x8x8x8--7x7x7x7--------------|
D|--------------------------------------------------|
A|--------------------------------------------------|
E|--------------------------------------------------|

   Pre-Chorus
e|----------------------------------------------------|
B|----------------------------------------------------|
G|--5--------8----------------------------------------|
D|--5-5------8-8--------------------------------------| x4
A|--3-5-x4---6-8--x4----------------------------------|
E|----3--------6--------------------------------------|

   Chorus
e|-----------------------------------|
B|-----------------------------------|
G|-8---10--12------------------------|
D|-x---x---x-------------------------|
A|-6---8---10------------------------|
E|-----------------------------------|
   
   Chorus ending
e|---------------------------|
B|---------------------------|
G|-10-10--8-8---7-7---8------|
D|-x--x---x-x---x-x---x------|
A|-8--8---6-6---5-5---6------|
E|---------------------------|

    Ska Verse
   
   Chorus/Interlude
e|-----------------------------------------------------|
B|-----------------------------------------------------|
G|-8--10--12--8--10--10-8-8--7---12--13----------------|
D|-x--x---x---x--x---x--x-x--x---x---x-----------------|
A|-6--8---10--6--8---8--6-6--5---10--11----------------|
E|-----------------------------------------------------|

e|--------------------------------------------------|
B|--------------------------------------------------|
G|--15--17--19-20-19-20-19--17-15-13-12-10-12-------|
D|--x---x---x--x--x--x--x---x--x--x--x--x--x--------|
A|--13--15--17-18-17-18-17--15-13-11-10-8--10-------|
E|--------------------------------------------------|
            
Submit corrections

comments powered by Disqus
↑ Back to top | Star Fucking Hipsters Tabs for Zombie Christ. Lyrics for acoustic guitar and electric guitar. Tablatures and chords are parodies/interpretations of the original songs. You may use it for private study, scholarship, research or language learning purposes only