» » »

Star Fucking Hipsters, The Civilization Show Tabs (ver.2)

Artists:  A B C D E F G H I J K L M N O P Q R S T U V W X Y Z # 

The Civilization Show Tabs (ver.2)

Star Fucking Hipsters Tabs
Rating:
5/5 (1 vote)
Hard to play? Try these video lessons and learn fast.
                |===================================|
| ARTIST: Star f**king Hipsters     | 
| SONG: The Civilization Show       |
|===================================|

INTRO:
Ska chords; up-strum the chords and downstrum the muted notes (the x's).
    
e|--33-x-3-x-3-x-3-x-3-x-3-x-3-x-3-x-3--|
B|--44-x-4-x-4-x-4-x-4-x-4-x-4-x-4-x-4--|
G|--55-x-5-x-5-x-5-x-5-x-5-x-5-x-5-x-5--|
D|-------^---------------------------^--|
A|-------^---------------------------^--|
E|-------^---------------------------^--|
         ^^REPEAT UNTIL VERSE STARTS^^



VERSE RIFF 1: 
Ska chords.

e|--33-x-3-x-3-x-3-x-3-x-3-x-3-x-3-x--|--44-x-4-x-4-x-4-x-4--|--33-x-3-x-3-x-3--|
B|--44-x-4-x-4-x-4-x-4-x-4-x-4-x-4-x--|--44-x-4-x-4-x-4-x-4--|--44-x-4-x-4-x-4--|
G|--55-x-5-x-5-x-5-x-5-x-5-x-5-x-5-x--|--55-x-5-x-5-x-5-x-5--|--55-x-5-x-5-x-5--|
D|------------------------------------|-----------------------------------------|
A|------------------------------------|-----------------------------------------|
E|------------------------------------|-----------------------------------------|

(REPEAT TWICE)



VERSE RIFF 2:

e|--44-x-4-x-4-x-4-x-4-x-4-x-4-x-4-x--|--33-x-3-x-3-x-3-x-3-x-3-x-3-x-3-x--|
B|--44-x-4-x-4-x-4-x-4-x-4-x-4-x-4-x--|--44-x-4-x-4-x-4-x-4-x-4-x-4-x-4-x--|
G|--55-x-5-x-5-x-5-x-5-x-5-x-5-x-5-x--|--55-x-5-x-5-x-5-x-5-x-5-x-5-x-5-x--|
D|------------------------------------|------------------------------------|
A|------------------------------------|------------------------------------|
E|------------------------------------|------------------------------------|

e|--44-x-4-x-4-x-4-x-4-x-4-x-4-x-4-x--|--7--3-x-3-x-3-x-3-x-3-x-3-x-3-x-3--|
B|--44-x-4-x-4-x-4-x-4-x-4-x-4-x-4-x--|--4--3-x-3-x-3-x-3-x-3-x-3-x-3-x-3--|
G|--55-x-5-x-5-x-5-x-5-x-5-x-5-x-5-x--|--5--4-x-4-x-4-x-4-x-4-x-4-x-4-x-4--|
D|------------------------------------|------------------------------------|
A|------------------------------------|------------------------------------|
E|------------------------------------|------------------------------------|


CHORUS:
Heavy distortion, power chords.

e|--------------|
B|--------------|
G|--5-----5-----|
D|--5--6--5--6--|
A|--3--6--3--6--|
E|-----4-----4--|

You play each chord like 16 times, really fast. There's a second guitar in the background, 
but its hard to pick it out in all the distortion fuzz.


VERSE RIFF 1

VERSE RIFF 2

VERSE RIFF 1

VERSE RIFF 2

CHORUS


BREAKDOWN (TRUMPET SOLO?)
Slow, ska chords.

e|--3--3--3--3--4--4--3--3--3--3--3--3--4--4--3--3--4--4--4--4--3--3--3--3--|
B|--4--4--4--4--4--4--4--4--4--4--4--4--4--4--4--4--4--4--4--4--4--4--4--4--|
G|--5--5--5--5--5--5--5--5--5--5--5--5--5--5--5--5--5--5--5--5--5--5--5--5--|
D|--------------------------------------------------------------------------|
A|--------------------------------------------------------------------------|
E|--------------------------------------------------------------------------|

e|--4--4--4--4--7--3--3--3--3333--|
B|--4--4--4--4--4--4--4--4--4444--|
G|--5--5--5--5--5--5--5--5--5555--|
D|--------------------------------|
A|--------------------------------|
E|--------------------------------|


VERSE RIFF 1 x 4

VERSE RIFF 2


And that's it.
            

comments powered by Disqus
↑ Back to top | Star Fucking Hipsters Tabs for The Civilization Show. Lyrics for acoustic guitar and electric guitar. Tablatures and chords are parodies/interpretations of the original songs. You may use it for private study, scholarship, research or language learning purposes only