>
 >
The Civilization Show

The Civilization Show Guitar Tabs

Star Fucking Hipsters - The Civilization Show chords, tabs, tablatures, lyrics

Guitar lessons | Add/correct | Request | Top 50 tabs Artists:  A B C D E F G H I J K L M N O P Q R S T U V W X Y Z 0-9

The Civilization Show Guitar Tabs – Star Fucking Hipsters

CD, Sheet music, Poster

Do you like The Civilization Show? Share with your friends now
TabsTabs v2
Band - Star Fucking Hipsters
Song - The Civilization Show
Album - Never Rest In Peace


Tuning - Eb (Eb Ab Db Gb Bb Eb)

Really Cool Ska Song By SFH Featuring Dick Lucas (Subhumans)
Everything Is Clean And Played In A Ska Rhythm Except The Chorus.

I Have Tabbed Both Rhythm (Left Speaker) & Lead (Right Speaker) Guitars.

-----------------------------------------------------------------------------
                             Rhythm Guitar

Intro
|-44-4-4-4-4-4-4-4--4-4-4-4-4-4-4-4--|
|-55-5-5-5-5-5-5-5--5-5-5-5-5-5-5-5--|
|-66-6-6-6-6-6-6-6--6-6-6-6-6-6-6-6--|
|-66-6-6-6-6-6-6-6--6-6-6-6-6-6-6-6--|
|-44-4-4-4-4-4-4-4--4-4-4-4-4-4-4-4--|
|------------------------------------|

Verse
|-44-4-4-4-4-4-4-4-55-5-5-5--44-4-4-4-4-4-4-4-4-4-4-4-4-4-4-4--|
|-55-5-5-5-5-5-5-5-55-5-5-5--55-5-5-5-5-5-5-5-5-5-5-5-5-5-5-5--|
|-66-6-6-6-6-6-6-6-66-6-6-6--66-6-6-6-6-6-6-6-6-6-6-6-6-6-6-6--|
|-66-6-6-6-6-6-6-6-77-7-7-7--66-6-6-6-6-6-6-6-6-6-6-6-6-6-6-6--|
|-44-4-4-4-4-4-4-4-77-7-7-7--44-4-4-4-4-4-4-4-4-4-4-4-4-4-4-4--|
|------------------55-5-5-5------------------------------------|

|-55-5-5-5--44-4-4-4--55-5-5-5-5-5-5-5--44-4-4-4-4-4-4-4-4--|
|-55-5-5-5--55-5-5-5--55-5-5-5-5-5-5-5--55-5-5-5-5-5-5-5-5--|
|-66-6-6-6--66-6-6-6--66-6-6-6-6-6-6-6--66-6-6-6-6-6-6-6-6--|
|-77-7-7-7--66-6-6-6--77-7-7-7-7-7-7-7--66-6-6-6-6-6-6-6-6--|
|-77-7-7-7--44-4-4-4--77-7-7-7-7-7-7-7--44-4-4-4-4-4-4-4-4--|
|-55-5-5-5------------55-5-5-5-5-5-5-5----------------------|

|-55-5-5-5-5-5-5-77-44-4-4-4-4-4-4-4---|
|-55-5-5-5-5-5-5-77-44-4-4-4-4-4-4-4---|
|-66-6-6-6-6-6-6-88-44-4-4-4-4-4-4-4---|
|-77-7-7-7-7-7-7-99-66-6-6-6-6-6-6-6---|
|-77-7-7-7-7-7-7-99-66-6-6-6-6-6-6-6---|
|-55-5-5-5-5-5-5-77-44-4-4-4-4-4-4-4---|

Chorus
|--------------------------------------------------------------|
|--------------------------------------------------------------|
|-6666666666666666----------66666666-6666666666666666----------|
|-xxxxxxxxxxxxxxxx-77777777-xxxxxxxx-xxxxxxxxxxxxxxxx-77777777-|
|-4444444444444444-xxxxxxxx-44444444-4444444444444444-xxxxxxxx-|
|------------------55555555---------------------------55555555-|

|--------------------------------------------------------------|
|--------------------------------------------------------------|
|-66666666------------------6666666666666666-------------------|
|-xxxxxxxx-7777777777777777-xxxxxxxxxxxxxxxx-7777777777777-99--|
|-44444444-xxxxxxxxxxxxxxxx-4444444444444444-xxxxxxxxxxxxx-xx--|
|----------5555555555555555------------------5555555555555-77--|

|-------------------|
|-------------------|
|-------------------|
|-6666666666666666--|
|-xxxxxxxxxxxxxxxx--|
|-4444444444444444--|

Bridge
|-4--4--4--4--5--5--4--4--4--4--4--4--5--5--4-4--|
|-5--5--5--5--5--5--5--5--5--5--5--5--5--5--5-5--|
|-6--6--6--6--6--6--6--6--6--6--6--6--6--6--6-6--|
|-6--6--6--6--7--7--6--6--6--6--6--6--7--7--6-6--|
|-4--4--4--4--7--7--4--4--4--4--4--4--7--7--4-4--|
|-------------5--5--------------------5--5-------|

|-5--5--5--5--4--4--4--4--5--5--5--7--4--4--444444--|
|-5--5--5--5--5--5--5--5--5--5--5--6--4--4--444444--|
|-6--6--6--6--6--6--6--6--6--6--6--8--4--4--444444--|
|-7--7--7--7--6--6--6--6--7--7--7--9--6--6--666666--|
|-7--7--7--7--4--4--4--4--7--7--7--9--6--6--666666--|
|-5--5--5--5--------------5--5--5--7--4--4--444444--|

Outro Verse
|-44-4-4-4-4-4-4-4-55-5-5-5--44-4-4-4-4-4-4-4-4-4-4-4-4-4-4-4--|
|-55-5-5-5-5-5-5-5-55-5-5-5--55-5-5-5-5-5-5-5-5-5-5-5-5-5-5-5--|
|-66-6-6-6-6-6-6-6-66-6-6-6--66-6-6-6-6-6-6-6-6-6-6-6-6-6-6-6--|
|-66-6-6-6-6-6-6-6-77-7-7-7--66-6-6-6-6-6-6-6-6-6-6-6-6-6-6-6--|
|-44-4-4-4-4-4-4-4-77-7-7-7--44-4-4-4-4-4-4-4-4-4-4-4-4-4-4-4--|
|------------------55-5-5-5------------------------------------|

|-55-5-5-5--44-4-4-4--55-5-5-5-5-5-5-5--44-4-4-4-4-4-4-4-4--|
|-55-5-5-5--55-5-5-5--55-5-5-5-5-5-5-5--55-5-5-5-5-5-5-5-5--|
|-66-6-6-6--66-6-6-6--66-6-6-6-6-6-6-6--66-6-6-6-6-6-6-6-6--|
|-77-7-7-7--66-6-6-6--77-7-7-7-7-7-7-7--66-6-6-6-6-6-6-6-6--|
|-77-7-7-7--44-4-4-4--77-7-7-7-7-7-7-7--44-4-4-4-4-4-4-4-4--|
|-55-5-5-5------------55-5-5-5-5-5-5-5----------------------|

|-55-5-5-5-5-5-5-77-44-4-4-4--4444---4---4--|
|-55-5-5-5-5-5-5-77-44-4-4-4--4444---5---5--|
|-66-6-6-6-6-6-6-88-44-4-4-4--4444---6---6--|
|-77-7-7-7-7-7-7-99-66-6-6-6--6666---6---6--|
|-77-7-7-7-7-7-7-99-66-6-6-6--6666---4---4--|
|-55-5-5-5-5-5-5-77-44-4-4-4--4444----------|


----------------------------------------------------------------------------
                              Lead Guitar

Intro
|-44-4-4-4-4-4-4-4--4-4-4-4-4-4-4-4--|
|-55-5-5-5-5-5-5-5--5-5-5-5-5-5-5-5--|
|-66-6-6-6-6-6-6-6--6-6-6-6-6-6-6-6--|
|-66-6-6-6-6-6-6-6--6-6-6-6-6-6-6-6--|
|-44-4-4-4-4-4-4-4--4-4-4-4-4-4-4-4--|
|------------------------------------|

Verse
|-44-4-4-4-4-4-4-4-55-5-5-5--44-4-4-4-4-4-4-4-4-4-4-4-4-4-4-4--|
|-55-5-5-5-5-5-5-5-55-5-5-5--55-5-5-5-5-5-5-5-5-5-5-5-5-5-5-5--|
|-66-6-6-6-6-6-6-6-66-6-6-6--66-6-6-6-6-6-6-6-6-6-6-6-6-6-6-6--|
|-66-6-6-6-6-6-6-6-77-7-7-7--66-6-6-6-6-6-6-6-6-6-6-6-6-6-6-6--|
|-44-4-4-4-4-4-4-4-77-7-7-7--44-4-4-4-4-4-4-4-4-4-4-4-4-4-4-4--|
|------------------55-5-5-5------------------------------------|

|-55-5-5-5--44-4-4-4--55-5-5-5-5-5-5-5--44-4-4-4-4-4-4-4-4--|
|-55-5-5-5--55-5-5-5--55-5-5-5-5-5-5-5--55-5-5-5-5-5-5-5-5--|
|-66-6-6-6--66-6-6-6--66-6-6-6-6-6-6-6--66-6-6-6-6-6-6-6-6--|
|-77-7-7-7--66-6-6-6--77-7-7-7-7-7-7-7--66-6-6-6-6-6-6-6-6--|
|-77-7-7-7--44-4-4-4--77-7-7-7-7-7-7-7--44-4-4-4-4-4-4-4-4--|
|-55-5-5-5------------55-5-5-5-5-5-5-5----------------------|

|-55-5-5-5-5-5-5-77-44-4-4-4-4-4-4-4---|
|-55-5-5-5-5-5-5-77-44-4-4-4-4-4-4-4---|
|-66-6-6-6-6-6-6-88-44-4-4-4-4-4-4-4---|
|-77-7-7-7-7-7-7-99-66-6-6-6-6-6-6-6---|
|-77-7-7-7-7-7-7-99-66-6-6-6-6-6-6-6---|
|-55-5-5-5-5-5-5-77-44-4-4-4-4-4-4-4---|

Chorus 
Right, You Really Need To Listen Hard For This Lead Part!
|--------------------------------------|
|--------------------------------------|
|-6666666-8888-9999----------8888-9999-|
|-xxxxxxx-xxxx-xxxx-77777777-xxxx-xxxx-|
|-4444444-6666-7777-xxxxxxxx-6666-7777-|
|-------------------55555555-----------|

|-----------------------------------------------|
|-----------------------------------------------|
|-6666666-8888-9999--14141414141414-13131313-11-|
|-xxxxxxx-xxxx-xxxx--x-x-x-x-x-x-x--x-x-x-x--x--|
|-4444444-6666-7777--12121212121212-11111111-9--|
|-----------------------------------------------|

|--------------------------------------|
|--------------------------------------|
|-6666666-8888-9999----------8888-9999-|
|-xxxxxxx-xxxx-xxxx-77777777-xxxx-xxxx-|
|-4444444-6666-7777-xxxxxxxx-6666-7777-|
|-------------------55555555-----------|

|--------------------------------------------------------|
|--------------------------------------------------------|
|-6666666-8888-9999--14141414141414-13131313-1111-99-88--|
|-xxxxxxx-xxxx-xxxx--x-x-x-x-x-x-x--x-x-x-x--x-x--xx-xx--|
|-4444444-6666-7777--12121212121212-11111111-9-9--77-66--|
|--------------------------------------------------------|

Bridge
|-4--4--4--4--5--5--4--4--4--4--4--4--5--5--4-4--|
|-5--5--5--5--5--5--5--5--5--5--5--5--5--5--5-5--|
|-6--6--6--6--6--6--6--6--6--6--6--6--6--6--6-6--|
|-6--6--6--6--7--7--6--6--6--6--6--6--7--7--6-6--|
|-4--4--4--4--7--7--4--4--4--4--4--4--7--7--4-4--|
|-------------5--5--------------------5--5-------|

|-5--5--5--5--4--4--4--4--5--5--5--7--4--4--444444--|
|-5--5--5--5--5--5--5--5--5--5--5--6--4--4--444444--|
|-6--6--6--6--6--6--6--6--6--6--6--8--4--4--444444--|
|-7--7--7--7--6--6--6--6--7--7--7--9--6--6--666666--|
|-7--7--7--7--4--4--4--4--7--7--7--9--6--6--666666--|
|-5--5--5--5--------------5--5--5--7--4--4--444444--|

Outro Verse
|-44-4-4-4-4-4-4-4-55-5-5-5--44-4-4-4-4-4-4-4-4-4-4-4-4-4-4-4--|
|-55-5-5-5-5-5-5-5-55-5-5-5--55-5-5-5-5-5-5-5-5-5-5-5-5-5-5-5--|
|-66-6-6-6-6-6-6-6-66-6-6-6--66-6-6-6-6-6-6-6-6-6-6-6-6-6-6-6--|
|-66-6-6-6-6-6-6-6-77-7-7-7--66-6-6-6-6-6-6-6-6-6-6-6-6-6-6-6--|
|-44-4-4-4-4-4-4-4-77-7-7-7--44-4-4-4-4-4-4-4-4-4-4-4-4-4-4-4--|
|------------------55-5-5-5------------------------------------|

|-55-5-5-5--44-4-4-4--55-5-5-5-5-5-5-5--44-4-4-4-4-4-4-4-4--|
|-55-5-5-5--55-5-5-5--55-5-5-5-5-5-5-5--55-5-5-5-5-5-5-5-5--|
|-66-6-6-6--66-6-6-6--66-6-6-6-6-6-6-6--66-6-6-6-6-6-6-6-6--|
|-77-7-7-7--66-6-6-6--77-7-7-7-7-7-7-7--66-6-6-6-6-6-6-6-6--|
|-77-7-7-7--44-4-4-4--77-7-7-7-7-7-7-7--44-4-4-4-4-4-4-4-4--|
|-55-5-5-5------------55-5-5-5-5-5-5-5----------------------|

|-55-5-5-5-5-5-5-77-44-4-4-4--4444---4---4--|
|-55-5-5-5-5-5-5-77-44-4-4-4--4444---5---5--|
|-66-6-6-6-6-6-6-88-44-4-4-4--4444---6---6--|
|-77-7-7-7-7-7-7-99-66-6-6-6--6666---6---6--|
|-77-7-7-7-7-7-7-99-66-6-6-6--6666---4---4--|
|-55-5-5-5-5-5-5-77-44-4-4-4--4444----------|

Structure
Intro
Verse
Chorus
Verse x2
Chorus
Bridge
Verse
Outro Verse

It's A Pretty Crappy Show Ya'Know, The Civilisation Show :/

Rate & Comment Please!





Comments


Popular Star Fucking Hipsters tabs & chords
Only Sleep Bass Tabs
3000 Miles Away Tabs
Look Who's Talking Now! Tabs
Snitch To The Suture Intro Tabs
The Civilization Show 1 Tabs
Two Cups Of Tea 1 Tabs
Volume Ii Tabs
Zombie Christ 1 Tabs
The Path Is Paved Ukulele
Zombie Christ Ukulele


Song lyrics



↑ Back to top | Tablatures and chords are parodies/interpretations of the original songs. You may use it for private study, scholarship, research or language learning purposes only
© 2014 AZChords.com Contact us | Privacy policy | DMCA | Add/correct tabs | Request tabs | Top 50 tabs