» » »

S.F.H. Tabs (ver.1)

Artists:  A B C D E F G H I J K L M N O P Q R S T U V W X Y Z # 

S.F.H. Tabs (ver.1)

Star Fucking Hipsters
Rating:
0/5 (0 votes)

Hard to play? Try these video lessons and learn fast.
                (Theme)
Band - Star f**king Hipsters
Song - S.F.H. Theme
Album - Never Rest In Peace


Tuning Eb (Eb Ab Db Gb Bb Eb)

Great Metally Tune From SFH!

I Have Tabbed Both Rhythm (Left Speaker) & Lead (Right Speaker) Guitars.
Rhythm On Top
Lead At Bottom

.=Palm Mute
/\=Slides
*=Pinch Harmonic

-----------------------------------------------------------------------------
                               Rhythm Guitar

Intro
|---------------------------|
|---------------------------|
|---------------------------|
|-222-333-555-333-222-333-2-|
|-222-333-555-333-222-333-2-|
|-000-111-333-111-000-111-0-|
  ... ... ... ... ... ... .

Lead Overdub
Comes In At :0.9  2.01 2.05
|----12---|
|-12------|
|---------|
|---------|
|---------|
|---------|

Verse
|-----------------------------------------------------------|
|-----------------------------------------------------------|
|-----------------------------------------------------------|
|--------7--------------7--------------7-------7-6-7-9-7-6--|
|-7-8-10---10-8--7-8-10---10-8--7-8-10---10-8---------------|
|-----------------------------------------------------------|
  . .  .   . .   . . .    . .   . . .     . .  . . . . . .
|--------------------------------------------------------|
|--------------------------------------------------------|
|----------------------------------------------------9*--|
|--------7--------------7--------------7-------7-6-7-----|
|-7-8-10---10-8--7-8-10---10-8--7-8-10---10-8------------|
|--------------------------------------------------------|
  . . .    .  .  . . .    .  .  . . .    . .   . . .

Chorus
|-0-0-0-0-----------------|
|-0-0-0-0-----------------|
|-9-9-9-9--10-10-10/1212--|
|-x-x-x-x--x--x--x--x-x---|
|-7-7-7-7--8--8--8-/1010--|
|-------------------------|

Pre Bridge
|-------------------------------|
|-------------------------------|
|-99-1010-1212-1010-99-10101010-|
|-99-1010-1212-1010-99-10101010-|
|-77-8-8--1010-8-8--77-8-8-8-8--|
|-------------------------------|

Bridge
|-------------------------------|
|-------------------------------|
|-99-1010-1212-1010-99-10101010-|
|-99-1010-1212-1010-99-10101010-|
|-77-8-8--1010-8-8--77-8-8-8-8--|
|-------------------------------|

Outro
|--------------------------|------------------------|
|--------------------------|------------------------|
|-99-1010-1212-1010-99-10--|-99-1010-9--99-1010-9---|
|-99-1010-1212-1010-99-10--|-99-1010-9--99-1010-9---|
|-77-8-8--1010-8-8--77-8---|-77-8-8--7--77-8-8--7---|
|--------------------------|------------------------|

E5
|-------------------|
|-------------------|
|-------------------|
|-2-----------------|
|-2-----------------|
|-0-----------------|

----------------------------------------------------------------------------
                                Lead Guitar

Intro
|---------------------------|
|---------------------------|
|---------------------------|
|-222-333-555-333-222-333-2-|
|-222-333-555-333-222-333-2-|
|-000-111-333-111-000-111-0-|
  ... ... ... ... ... ... .

Lead Overdub
Comes In At: 0.9 2.01 2.05
|----------|
|----17----|
|-16-------|
|----------|
|----------|
|----------|

Verse
|----------------------------------------------------|
|----------------------------------------------------|
|-------2------------2------------2------2-1-2-4-2-1-|
|-2-3-5---5-3--2-3-5---5-3--2-3-5---5-3--------------|
|----------------------------------------------------|
|----------------------------------------------------|
  . . .   . .  . . .   . .  . . .   . .  . . . . . .
|---------------------------------------------------|
|-----------------------------------------------5*--|
|-------2------------2------------2------2-1-2------|
|-2-3-5---5-3--2-3-5---5-3--2-3-5---5-3-------------|
|---------------------------------------------------|
|---------------------------------------------------|
  . . .  . .   . . .   . .  . . .   . .  . . .

Chorus
|-0-0-0-0------------------|
|-0-0-0-0------------------|
|-9-9-9-9--10-10-10/1212---|
|-x-x-x-x--x--x--x--x-x----|
|-7-7-7-7--8--8--8-/1010---|
|--------------------------|

Pre Bridge
|-------------------|
|-------------------|
|-4/9-------4/9-----|
|-x-x-------x-x-----|
|-2/7-------2/7-----|
|-------------------|

Bridge
|-------------------------------|
|-------------------------------|
|-99-1010-1212-1010-99-10101010-|
|-99-1010-1212-1010-99-10101010-|
|-77-8-8--1010-8-8--77-8-8-8-8--|
|-------------------------------|

Outro
|--------------------------|------------------------|
|--------------------------|------------------------|
|-99-1010-1212-1010-99-10--|-99-1010-9--99-1010-9---|
|-99-1010-1212-1010-99-10--|-99-1010-9--99-1010-9---|
|-77-8-8--1010-8-8--77-8---|-77-8-8--7--77-8-8--7---|
|--------------------------|------------------------|

E5
|-------------------|
|-------------------|
|-9-----------------|
|-9-----------------|
|-7-----------------|
|-------------------|

Structure
Bass Intro
Intro
Bass Pre Verse
Verse
Chorus
Verse
Chorus
Verse
Intro
Pre Bridge
Bridge
Outro
E5

Well, What A Good Theme. Start f**king Trees!

Rate & Comment Please!
            
Hard to play? Try these video lessons and learn fast. | Correct




comments powered by Disqus
↑ Back to top | Tablatures and chords are parodies/interpretations of the original songs. You may use it for private study, scholarship, research or language learning purposes only