» » »

Star Fucking Hipsters, Severance Pay Tabs (ver.1)

Artists:  A B C D E F G H I J K L M N O P Q R S T U V W X Y Z # 

Severance Pay Tabs (ver.1)

Star Fucking Hipsters Tabs
 Rating:
4.2/5 (5 votes)
Severance Pay lessons Tabs too difficult? Try these video lessons and learn fast
1
                Band - Star f**king Hipsters
Song - Severance Pay
Album - Never Rest In Peace


Tuning: Eb (Eb Ab Db Gb Bb Eb)

Easy But Really Cool Song By SFH.
I Have Tabbed Rhythm (Right Speaker & Lead (Left Speaker) Guitars
Lead On Top
Rhythm At Bottom

.=Palm Mute

-----------------------------------------------------------------------------
                              Lead Guitar

Intro/Bridge
|-------------------------------------------------|
|-------------------------------------------------|
|-------------------------66666-77777-66666-77777-|
|-66666-77777-66666-77777-xxxxx-xxxxx-xxxxx-xxxxx-|
|-xxxxx-xxxxx-xxxxx-xxxxx-44444-55555-44444-55555-|
|-44444-55555-44444-55555-------------------------|

Verse
|--------------------------------------------------|
|--------------------------------------------------|
|-------------------------66666-77777-66666-77-99--|
|-66666-77777-66666-77777-xxxxx-xxxxx-xxxxx-xx-xx--|
|-xxxxx-xxxxx-xxxxx-xxxxx-44444-55555-44444-55-77--|
|-44444-55555-44444-55555--------------------------|

Chorus
|--------------------------------------------------|
|--------------------------------------------------|
|-------------------------66666-77777-66666-77-99--|
|-66666-77777-66666-77777-xxxxx-xxxxx-xxxxx-xx-xx--|
|-xxxxx-xxxxx-xxxxx-xxxxx-44444-55555-44444-55-77--|
|-44444-55555-44444-55555--------------------------|

|-----------------------------------------------|
|-----------------------------------------------|
|-------------------------66666-77777-99999999--|
|-66666-77777-66666-77777-xxxxx-xxxxx-xxxxxxxx--|
|-xxxxx-xxxxx-xxxxx-xxxxx-44444-55555-77777777--|
|-44444-55555-44444-55555-----------------------|

Bridge Part 2
|-----------------------------------------------------|
|-----------------------------------------------------|
|--------------------------6-666-7-777-6-666-7-77-99--|
|-6-666-7-777-6-666-7-777--x-xxx-x-xxx-x-xxx-x-xx-xx--|
|-x-xxx-x-xxx-x-xxx-x-xxx--4-444-5-555-4-444-5-55-77--|
|-4-444-5-555-4-444-5-555-----------------------------|
    ...   ...   ...   ...    ...   ...   ...   

|----------------------------------------------|
|----------------------------------------------|
|-------------------------6-666-7-77-99999999--|
|-6-666-7-777-6-666-7-777-x-xxx-x-xx-xxxxxxxx--|
|-x-xxx-x-xxx-x-xxx-x-xxx-4-444-5-55-77777777--|
|-4-444-5-555-4-444-5-555----------------------| 
    ...   ...   ...   ...   ...    

Outro
|-------------------|
|-------------------|
|-------------------|
|-7----------7------|
|-7----------7------|
|-5----------5------|

---------------------------------------------------------------------------
                             Rhythm Guitar

Verse
|--------------------------|
|--------------------------|
|-------------77777777777--|
|-77777777777-77777777777--|
|-77777777777-55555555555--|
|-55555555555--------------|

Chorus
|-------------------------|
|-------------------------|
|------------77777777777--|
|-4444444444-77777777777--|
|-4444444444-55555555555--|
|-2222222222--------------|

|---------------------------|
|---------------------------|
|------------777777-9999999-|
|-4444444444-777777-9999999-|
|-4444444444-555555-7777777-|
|-2222222222----------------|

Bridge
|----------------------------------|
|----------------------------------|
|-----------------7-7-7-7-7-7-7-7--|
|-7-7-7-7-7-7-7-7-7-7-7-7-7-7-7-7--| x3
|-7-7-7-7-7-7-7-7-5-5-5-5-5-5-5-5--|
|-5-5-5-5-5-5-5-5------------------|
  . . . . . . . . . . . . . . . .
|-----------------------------------|
|-----------------------------------|
|-----------------7-7-7-7-77777777--|
|-7-7-7-7-7-7-7-7-7-7-7-7-77777777--|
|-7-7-7-7-7-7-7-7-5-5-5-5-55555555--|
|-5-5-5-5-5-5-5-5-------------------|
  . . . . . . . . . . . .

Bridge Part 2
|-------------------------|
|-------------------------|
|------------77777777777--|
|-4444444444-77777777777--|
|-4444444444-55555555555--|
|-2222222222--------------|
  .......... ...........

|---------------------------|
|---------------------------|
|------------777777-9999999-|
|-4444444444-777777-9999999-|
|-4444444444-555555-7777777-|
|-2222222222----------------|
  .......... ......

Structure
Intro
Verse x2
Chorus
Verse x2
Chorus
Bridge
Bridge Part 2
Verse
Chorus
Outro

There Ya Have It, Severance Pay!

Rate & Comment Please
            
Submit corrections

comments powered by Disqus
↑ Back to top | Star Fucking Hipsters Tabs for Severance Pay. Lyrics for acoustic guitar and electric guitar. 1 Tablatures and chords are parodies/interpretations of the original songs. You may use it for private study, scholarship, research or language learning purposes only