» » »

Star Fucking Hipsters, Only Sleep Bass tabs (ver.1)

Artists:  A B C D E F G H I J K L M N O P Q R S T U V W X Y Z # 

Only Sleep Bass tabs (ver.1)

Star Fucking Hipsters Tabs
Rating:
5/5 (1 vote)
Only Sleep lessons Tabs too difficult? Try these video lessons and learn fast
                This is my first tab, i dont think this is tabbed on any other site, so hopefully
its right, or at least good enough for everyone to use as a basic guideline.

Verse 1

Gb]----------------------------------------------------------------------------|
Db]--------------4---4---2h4------------4--------------------------------------|
Ab]12/2--22222222--22--22------------4-----2--------6-6--4--46----------4455/7-|
Eb]--------------------------22222222-22-22-2-444444-4-44-44--5555555555-------|

Verse 2

Gb]-----------------------------------------------------------------------------|
Db]--------------4---4---2h4------------4---------------------------------------| *repeat as many
Ab]12/2--22222222--22--22------------4-----2--------6-6--4--46--------5h7775h7--| times as needed
Eb]--------------------------22222222-22-22-2-444444-4-44-44--00000000----------|

interlude/bridge

Gb]----------------------66----66---------------------------------------------|
Db]--2---2----4---4----77--77----77-------------------------------------------|
Ab]22-222-2-44-444-4-77-------------------------------------------------------|
Eb]---------------------------------------------------------------------------|

Gb]---------------------------------------------------------------------------|
Db]---------------------------------------------------------------------------|
Ab]4444444455555555----------------4444444455555555---------------------------|
Eb]----------------5555555577777777----------------5555555577777777-----------|

And thats about it really, enjoy
            

comments powered by Disqus
↑ Back to top | Star Fucking Hipsters Bass for Only Sleep. Lyrics for acoustic guitar and electric guitar. Tablatures and chords are parodies/interpretations of the original songs. You may use it for private study, scholarship, research or language learning purposes only