» » »

Star Fucking Hipsters, Never Rest In Peace Tabs (ver.1)

Artists:  A B C D E F G H I J K L M N O P Q R S T U V W X Y Z # 

Never Rest In Peace Tabs (ver.1)

Star Fucking Hipsters Tabs
 Rating:
4.2/5 (5 votes)
Never Rest In Peace lessons Tabs too difficult? Try these video lessons and learn fast
                Band - Star f**king Hipsters
Song - Never Rest In Peace
Album - Never Rest In Peace


Tuning: Half Step Down/Eb (Eb Ab Db Gb Bb Eb)

Great Way To End A Fantastic Album.
Guitar 1 - Left Speaker
Guitar 2 - Right Speaker
Guitar 3 - Both Speakers (Bridge/Outro Octaves)

Key:
.=Palm Mute
/\=Slides

-----------------------------------------------------------------------------
                              Guitar 1
Intro
|--------------|--------------|
|--------------|--------------|
|-7------------|-7----------7-|
|-7------------|-7----------7-|
|-5------------|-5----------5-|
|--------------|--------------|

Intro 2
|------------------------------------------------|
|-------77-------------77-------77777-88-77---7--|
|-77777----77-9--66666----77-9--------------9----|
|------------------------------------------------|
|------------------------------------------------|
|------------------------------------------------|

|--------------------------------------------------|
|-------77-------------77-------77777-88-77--------|
|-77777----77-9--66666----77-9--------------9-7-9/-|
|--------------------------------------------------|
|--------------------------------------------------|
|--------------------------------------------------|

Verse
|---------------------------------------------------------|
|---------------------------------------------------------|
|-7-777-7-7-777---------------4-444-4-4-444-4-444-4-4-444-|
|-7-777-7-7-777-4-444-4-4-444-4-444-4-4-444-4-444-4-4-444-|
|-5-555-5-5-555-4-444-4-4-444-2-222-2-2-222-2-222-2-2-222-|
|---------------2-222-2-2-222-----------------------------|
  . ... . . ... . ... . . ... . ... . . ... . ... . . ...
|-----------------------------------------------------|
|-----------------------------------------------------|
|-7-777-7-7-777---------------4-444-4-4-444-----------|
|-7-777-7-7-777-4-444-4-4-444-4-444-4-4-444-55555555--|
|-5-555-5-5-555-4-444-4-4-444-2-222-2-2-222-55555555--|
|---------------2-222-2-2-222---------------33333333--|
  . ... . . ... . ... . . ... . ... . . ...

Chorus 1
|-----------------------------------|
|-----------------------------------|
|-----------------------------------|
|-44444444-55555555-44444444-5555-7-|
|-44444444-55555555-44444444-5555-7-|
|-22222222-33333333-22222222-3333-5-|
                             .... .
Chorus 2 & 3
|-------------------------------------|
|-------------------------------------|
|-------------------------------------|
|-44444444-55555555-44444444-5555-7-9-|
|-44444444-55555555-44444444-5555-----|
|-22222222-33333333-22222222-3333-----|
                             ....
|---------------------------------------------------|
|---------------------------------------------------|
|---------------------------------------------------|
|-44444444-55555555-44444444-55555555-444444-222222-|
|-44444444-55555555-44444444------------------------|
|-22222222-33333333-22222222------------------------|
                             ........ ...... ......
Fill
|-0-----------------|
|-0-----------------|
|-0-----------------|
|-------------------|
|-------------------|
|-------------------|

Post Bridge/Post Bridge 2
|---------------------------------------|
|---------------------------------------|
|----------------------4444444444444444-|
|-----7777777777777777-4444444444444444-|
|-----7777777777777777-2222222222222222-|
|-----5555555555555555------------------|
      ................ ................

|-----------------------------------|
|-----------------------------------|
|-----------------------------------|
|-4444444444444444-5555555555555555-|
|-4444444444444444-5555555555555555-|
|-2222222222222222-3333333333333333-|
  ................ ................

|-----------------------------------|
|-----------------------------------|
|------------------4444444444444444-|
|-7777777777777777-4444444444444444-|
|-7777777777777777-2222222222222222-|
|-5555555555555555------------------|
  ................ ................

|-----------------------------------|
|-----------------------------------|
|-----------------------------------|
|-4444444444444444-5555555555555555-|
|-4444444444444444-5555555555555555-|
|-2222222222222222-3333333333333333-|
  ................ ................

Outro
This Is Really Hard To Hear Under The Octaves, So Play It How You Want.
|----------------------------------|
|----------------------------------|
|---------4------------------------|
|-7-------4--------4---------5-----|
|-7-------2--------4---------5-----|
|-5----------------2---------3-----|

A5
|----------------------|
|----------------------|
|----------------------|
|-7--------------------|
|-7--------------------|
|-5--------------------|

-----------------------------------------------------------------------------
                               Guitar 2

Intro
|--------------------------------------|
|--------------------------------------|
|-777777777-----------4444444444444444-|
|-777777777-444444444-4444444444444444-| x2
|-555555555-444444444-2222222222222222-|
|-----------222222222------------------|

Intro 2
|--------------------------------------|
|--------------------------------------|
|-777777777-----------4444444444444444-|
|-777777777-444444444-4444444444444444-|
|-555555555-444444444-2222222222222222-|
|-----------222222222------------------|

|--------------------------------------|
|--------------------------------------|
|-777777777-----------44444444---------|
|-777777777-444444444-44444444-5555555-|
|-555555555-444444444-22222222-5555555-|
|-----------222222222----------3333333-|


Verse
|--------------------------------------------------|
|--------------------------------------------------|
|-7777777-6666666-11111111111111-12121212-14141414-|
|-xxxxxxx-xxxxxxx-x-x-x-x-x-x-x--x-x-x-x--x-x-x-x--|
|-5555555-4444444-9-9-9-9-9-9-9--10101010-12121212-|
|--------------------------------------------------|

|--------------------------------------------------|
|--------------------------------------------------|
|-7777777-6666666-11111111111111-16161616-14141414-|
|-xxxxxxx-xxxxxxx-x-x-x-x-x-x-x--x-x-x-x--x-x-x-x--|
|-5555555-4444444-9-9-9-9-9-9-9--14141414-12121212-|
|--------------------------------------------------|

Chorus
|-----------------------------------|
|-----------------------------------|
|-----------------------------------|
|-44444444-55555555-44444444-5555-7-|
|-44444444-55555555-44444444-5555-7-|
|-22222222-33333333-22222222-3333-5-|
                             .... .
Chorus 2 & 3
|-----------------------------------|
|-----------------------------------|
|-----------------------------------|
|-44444444-55555555-44444444-55555--|
|-44444444-55555555-44444444-55555--|
|-22222222-33333333-22222222-33333--|
                             .....
|---------------------------------------------------|
|---------------------------------------------------|
|---------------------------------------------------|
|-44444444-55555555-44444444-55555555-444444-222222-|
|-44444444-55555555-44444444------------------------|
|-22222222-33333333-22222222------------------------|
                             ........ ...... ......
Fill
(This Is Pretty Hard To Hear)
|---Swell-In-With---|
|----Volume-Knob----|
|-------------------|
|-5-------------7---|
|-5-------------7---|
|-3-------------5---|

Post Bridge
|------------------------------|
|------------------------------|
|------------------------------|
|------------------------------|
|------------------------------|
|-5---3/5-7---9/10---2---0-2-3-|

|------------------------------------|
|------------------------------------|
|------------------------------------|
|------------------------------------|
|------------------------------------|
|-2/3-3/5---3/5-7---9/10---2---0-2-3-|


Post Bridge 2
|---------------------------------------|
|---------------------------------------|
|----------------------4444444444444444-|
|-----7777777777777777-4444444444444444-|
|-----7777777777777777-2222222222222222-|
|-2/3-5555555555555555------------------|
      ................ ................

|-----------------------------------|
|-----------------------------------|
|-----------------------------------|
|-4444444444444444-5555555555555555-|
|-4444444444444444-5555555555555555-|
|-2222222222222222-3333333333333333-|
  ................ ................

|-----------------------------------|
|-----------------------------------|
|------------------4444444444444444-|
|-7777777777777777-4444444444444444-|
|-7777777777777777-2222222222222222-|
|-5555555555555555------------------|
  ................ ................

|-----------------------------------|
|-----------------------------------|
|-----------------------------------|
|-4444444444444444-5555555555555555-|
|-4444444444444444-5555555555555555-|
|-2222222222222222-3333333333333333-|
  ................ ................

Outro
This Is Really Hard To Hear Under The Octaves, So Play It How You Want.
|----------------------------------|
|----------------------------------|
|---------4------------------------|
|-7-------4--------4---------5-----|
|-7-------2--------4---------5-----|
|-5----------------2---------3-----|

A5
|----------------------|
|----------------------|
|----------------------|
|-7--------------------|
|-7--------------------|
|-5--------------------|

-----------------------------------------------------------------------------
                               Guitar 3

Bridge
Clean Tone
Play All Notes As Natural Harmonics
|-----------------------------------|
|-----7-------7-------7--------7----|
|---7--7----7---7---7---7----7---7--|
|-7-------7-------7--------7--------|
|-----------------------------------|
|-----------------------------------|

|-----------------------------------|
|-----------------------------------|
|---7-5-7---7-5-7---7-5-7---7-5-7---|
|-7-------7-------7-------7---------|
|-----------------------------------|
|-----------------------------------|

Outro Octaves
|--------------------------------------------|
|--------------------------------------------|
|-1414141414141414-1616161616161616-18181818-|
|-x-x-x-x-x-x-x-x--x-x-x-x-x-x-x-x--x-x-x-x--| x2
|-1212121212121212-1414141414141414-16161616-|
|--------------------------------------------|

|------------------------------------|
|------------------------------------|
|-1111111111111111-12121212-14141414-|
|-x-x-x-x-x-x-x-x--x-x-x-x--x-x-x-x--|
|-9-9-9-9-9-9-9-9--10101010-12121212-|
|------------------------------------|

|-----------------------------------|
|-----------------------------------|
|-1616161616161616-1818181818181818-|
|-x-x-x-x-x-x-x-x--x-x-x-x-x-x-x-x--|
|-1414141414141414-1616161616161616-|
|-----------------------------------|

|------------------------------------|
|------------------------------------|
|-1414141414141414-16161616-18181818-|
|-x-x-x-x-x-x-x-x--x-x-x-x--x-x-x-x--| x2
|-1212121212121212-14141414-16161616-|
|------------------------------------|

|------------------------------------|
|-1717171717171717-15151515-14141414-|
|-x-x-x-x-x-x-x-x--x-x-x-x--x-x-x-x--|
|-1414141414141414-12121212-11111111-| x2
|------------------------------------|
|------------------------------------|

|----------------------|
|-10-------------------|
|-x--------------------|
|-7--------------------|
|----------------------|
|----------------------|

-----------------------------------------------------------------------------

Structure
Intro 1
Intro 2
Verse
Chorus 1
Verse
Chorus 2
Bridge x4
Fill
Intro 2
Chorus 3
Bridge x8 
Post Bridge (Bridge Plays Through Both Post Bridges)
Post Bridge 2
Outro

 
Well, That Was Prety Awkward To Tab But There Ya' Have It!
Remember Kids: YOU'LL NEVER REST IN PEACE
            
Submit corrections

comments powered by Disqus
↑ Back to top | Star Fucking Hipsters Tabs for Never Rest In Peace. Lyrics for acoustic guitar and electric guitar. Tablatures and chords are parodies/interpretations of the original songs. You may use it for private study, scholarship, research or language learning purposes only