>
 >
Heaven

Heaven Guitar Tabs

Star Fucking Hipsters - Heaven chords, tabs, tablatures, lyrics

Guitar lessons | Add/correct | Request | Top 50 tabs Artists:  A B C D E F G H I J K L M N O P Q R S T U V W X Y Z 0-9

Heaven Guitar Tabs – Star Fucking Hipsters

CD, Sheet music, Poster

Do you like Heaven? Share with your friends now
Tabs
Band - Star Fucking Hipsters
Song - Heaven (Degenerics Cover)
Album - Never Rest In Peace


Tuning: Eb (Eb Ab Db Gb Bb Eb)

Awesome Song Which Was Originally Written As An Instrumental
For Frank Piegaros Former Band The Degenerics.

I Have Only Tabbed One Guitar As Both Guitars Pretty Much Play The Same Stuff For 
The Majority Of It.

.=Palm Mute
/\=Slides
Dist.=Distortion


Intro 
|-------------------|
|-------------------|
|-Feedback-6--------|
|----------x--------|
|----------4--------|
|-------------------|

Verse
|------------------------------------------------------------------|
|------------------------------------------------------------------|
|-6666666666-4-2222222222-44-6666666666-4-111111111111-13/14141414-|
|-xxxxxxxxxx-x-xxxxxxxxxx-xx-xxxxxxxxxx-x-x-x-x-x-x-x--x--x-x-x-x--|
|-4444444444-2-0000000000-22-4444444444-2-9-9-9-9-9-9--11/12121212-|
|------------------------------------------------------------------|

|--------------------------------------------------------------------|
|--------------------------------------------------------------------|
|-6666666666-4-111111111111-111111-999-77--6666666666-4-222222-44444-|
|-xxxxxxxxxx-x-x-x-x-x-x-x--x-x-x--xxx-xx--xxxxxxxxxx-x-xxxxxx-xxxxx-|
|-4444444444-2-9-9-9-9-9-9--9-9-9--777-55--4444444444-2-000000-22222-|
|--------------------------------------------------------------------|

Chorus
|----------------------|------------------|
|----------------------|------------------|
|-----6-6-6-7-7-9-9-9--|-7-6---6---6-7-6--|
|-7-7------------------|-----9---9--------|
|----------------------|------------------|
|-------x3-------------|------------------|

|----------------------|-----------------------9h10p9-----|
|----------------------|-8/10-8--7-8--7h8p7-----------10--|
|-----6-6-6-7-7-9-9-9--|--------------------7-------------|
|-7-7------------------|----------------------------------|
|----------------------|----------------------------------|
|-----x3---------------|----------------------------------|

Chorus 2
|----------------------|------------------|
|----------------------|------------------|
|-----6-6-6-7-7-9-9-9--|-7-6---6---6-7-6--|
|-7-7------------------|-----9---9--------|
|----------------------|------------------|
|-------x3-------------|------------------|

|----------------------|-------------------------|
|----------------------|-8/10-8--7-8--7h8p7------|
|-----6-6-6-7-7-9-9-9--|--------------------7----|
|-7-7------------------|-------------------------|
|----------------------|-------------------------|
|--------x3------------|-------------------------|

Pre Bridge
|--------------|
|--------------|
|-2-2/4\2------|
|--------------|
|-0-0/2\0------|
|--------------|

Bridge
Clean Tone                    Dist.
|-5---2---5---2---5---2---5---22222222---|
|-5---2---5---2---5---2---5---22222222---|
|-6---2---6---2---6---2---6---22222222---|
|-7---4---7---4---7---4---7---44444444---|
|-7---4---7---4---7---4---7---44444444---|
|-5---2---5---2---5---2---5---22222222---|

Chorus 3
|----------------------|------------------|
|----------------------|------------------|
|-----6-6-6-7-7-9-9-9--|-7-6---6---6-7-6--| x3
|-7-7------------------|-----9---9--------|
|----------------------|------------------|
|-------x3-------------|------------------|

|----------------------|-------------------------|
|----------------------|-8/10-8--7-8--7h8p7------|
|-----6-6-6-7-7-9-9-9--|--------------------7----|
|-7-7------------------|-------------------------|
|----------------------|-------------------------|
|----------------------|-------------------------|

Outro
|---------------------------------|
|---------------------------------|
|-6-----9--7/9\7\6/7\4/6\4/6\4----|
|-x-----x--x-x-x-x-x-x-x-x-x-x----|
|-4-----7--5/7\5\4/5\2/4\2/4\2----|
|---------------------------------|

|-------------------|
|-------------------|
|-6-----------------|
|-x-----------------|
|-4-----------------|
|-------------------|

Structure
Intro
Verse
Chorus
Verse
Chorus 2
Pre Bridge
Bridge
Chorus 3
Outro

Isn't That Heavenly :) 
Rate & Comment Please





Comments


Popular Star Fucking Hipsters tabs & chords
Empty Lives Chords
3000 Miles Away Tabs
Banned From The Land Tabs
Death Is Never Out Of Fashion Tabs
Death Is Never Out Of Fashion 1 Tabs
Empty Lives Tabs
Two Cups Of Tea 1 Tabs
Volume Ii Tabs
Zombie Christ 1 Tabs
Zombie Christ Intro Tabs


Song lyrics



↑ Back to top | Tablatures and chords are parodies/interpretations of the original songs. You may use it for private study, scholarship, research or language learning purposes only
© 2014 AZChords.com Contact us | Privacy policy | DMCA | Add/correct tabs | Request tabs | Top 50 tabs