» » »

Star Fucking Hipsters, Dreams Are Dead Tabs (ver.1)

Artists:  A B C D E F G H I J K L M N O P Q R S T U V W X Y Z # 

Dreams Are Dead Tabs (ver.1)

Star Fucking Hipsters Tabs
 Rating:
4.2/5 (5 votes)
Dreams Are Dead lessons Tabs too difficult? Try these video lessons and learn fast
                Band - Star f**king Hipsters
Song - Dreams Are Dead
Album - Never Rest In Peace


Tuning: Eb (Eb Ab Db Gb Bb Eb)

Pretty Cool And Very Easy Song Which Has 3 Guitars In It.
I Have Tabbed Both Rhythm (Right Speaker) & Lead (Both Speakers) Guitars.

The 3rd Guitar (Left Speaker) Plays The Same Chords As The Rhythm Guitar
But Only Hitting Them Once, I Didn't Bother Tabbing It For That Reason.

Lead On Top
Rhythm At Bottom

.=Plam Mute

-----------------------------------------------------------------------------
                             Lead Guitar

Intro/Riff 1
|----------------------------------------------------|
|----------------------------------------------------|
|----------------------------------------------------|
|---6---7-7-6----6---7-7-6----6---7-7-6----6---7/9-9-|
|-7---7--------7---7--------7---7--------7---7-------|
|----------------------------------------------------|

Riff 2
|------------------------------------------------------|
|------------------------------------------------------|
|------------------------------------------------------|
|---6---7-7-6----6----7-7-6----6---7-7-6----6---7-7-6--|
|----------------------------4---4--------4---4--------|
|-7---7--------7---7-----------------------------------|

|------------------------------------------------------|
|------------------------------------------------------|
|------------------------------------------------------|
|---6---7-7-6----6----7-7-6----6---7-7-6----6---7/9-9--|
|----------------------------4---4--------4---4--------|
|-7---7--------7---7-----------------------------------|

E5
|-------------------|
|-------------------|
|-------------------|
|-2-----------------|
|-2-----------------|
|-0-----------------|


----------------------------------------------------------------------------
                             Rhythm Guitar

Riff 2
|------------------------------------|
|------------------------------------|
|------------------------------------|
|-2222222222222222-7777777777777777--|
|-2222222222222222-7777777777777777--|
|-0000000000000000-5555555555555555--|
  ................ ................

Riff 3
|------------------------------------|
|------------------------------------|
|-4444444444444444-6666666666666666--|
|-4444444444444444-6666666666666666--| x2
|-2222222222222222-4444444444444444--|
|------------------------------------|
  ................ ................

E5
|-------------------|
|-------------------|
|-------------------|
|-2-----------------|
|-2-----------------|
|-0-----------------|

Structure
Riff 1 x6
Riff 2
Riff 1 x4
Riff 2
Riff 1 x4
Riff 2 x2
E5
     
----------------------------------------------------------------------------

I Hope I Didn't Confuse You With The 3rd Guitar Thing!, Just Ask If You Don't Understand :)

Rate And Comment Please!                   
            
Submit corrections

comments powered by Disqus
↑ Back to top | Star Fucking Hipsters Tabs for Dreams Are Dead. Lyrics for acoustic guitar and electric guitar. Tablatures and chords are parodies/interpretations of the original songs. You may use it for private study, scholarship, research or language learning purposes only