>
 >
Design

Design Guitar Tabs

Star Fucking Hipsters - Design chords, tabs, tablatures, lyrics

Guitar lessons | Add/correct | Request | Top 50 tabs Artists:  A B C D E F G H I J K L M N O P Q R S T U V W X Y Z 0-9

Design Guitar Tabs – Star Fucking Hipsters

CD, Sheet music, Poster

Do you like Design? Share with your friends now
Tabs
Band - Star Fucking Hipsters
Song - Design
Album - Never Rest In Peace


Tuning: Eb (Eb Ab Db Gb Bb Eb)

Great Track From A Brilliant Album.
I Have Tabbed Both Rhythm (Right Speaker) & Lead (Left Speaker) Guitars
Rhythm At Top
Lead At Bottom

.=Palm Mutes
h=Hammer On

------------------------------------------------------------------------------
                             Rhythm Guitar


Intro
|-------------------------------------------------------------------|
|-------------------------------------------------------------------|
|-999999999999------------------------------------------------------|
|-999999999999-111111111111111111111111-999999999999-555555-777777--|
|-777777777777-111111111111111111111111-999999999999-555555-777777--|
|--------------9-9-9-9-9-9-9-9-9-9-9-9--777777777777-333333-555555--|

Verse 
|---------------------|
|---------------------|
|-9----6---4----------|
|-x----x---x--5-77777-|
|-7----4---2--5-77777-|
|-------------3-55555-|

Verse 2
(Those Last Chords Are NOT Typos)
|----------------------------------------| 
|----------------------------------------| 
|----------------------------------------| 
|-99-9-99-9-99-9-999--66-6-66-6-66-6-666-| 
|-77-7-77-7-77-7-777--44-4-44-4-44-4-444-| 
|----------------------------------------| 
  .. . .. . .. . ...  .. . .. . .. . ...
|--------------------------------------|
|--------------------------------------|
|--------------------------------------|
|--------------------------------------|
|-99-9-99-9-99-9-999-55-5-55-5-55-5-44-|
|-77-7-77-7-77-7-777-77-7-77-7-77-7-55-|
  .. . .. . .. . ... .. . .. . .. . ..

Chorus
|--------------------------------------------------|
|--------------------------------------------------|
|-999999999999-66666666666-------------------------|
|-xxxxxxxxxxxx-xxxxxxxxxxx-666666666-777777-999999-|
|-777777777777-44444444444-666666666-777777-999999-|
|--------------------------444444444-555555-777777-|

Outro Chorus
|------x2--------------|----------------------------------------------|
|----------------------|----------------------------------------------|
|-999999-111111-131313-|-888888-111111-131313--1414141414-1616161616--|
|-xxxxxx-x-x-x--x-x-x--|-xxxxxx-x-x-x--x-x-x---x-x-x-x-x--x-x-x-x-x---|
|-777777-9-9-9--111111-|-666666-9-9-9--111111--1212121212-1414141414--|
|----------------------|----------------------------------------------|

|------x2--------------|------------------------------------------------|
|----------------------|------------------------------------------------|
|-999999-111111-131313-|-888888-111111-131313--1414141414-16-14-13-11-9-|
|-xxxxxx-x-x-x--x-x-x--|-xxxxxx-x-x-x--x-x-x---x-x-x-x-x--x--x--x--x--x-|
|-777777-9-9-9--111111-|-666666-9-9-9--111111--1212121212-14-12-11-9--7-|
|----------------------|------------------------------------------------|

Outro
|-------------------|
|-------------------|
|-9-----------------|
|-9-----------------|
|-7-----------------|
|-------------------|

--------------------------------------------------------------------------
                             Lead Guitar

Intro
|-------------------------------------------------------------------|
|-------------------------------------------------------------------|
|-999999999999------------------------------------------------------|
|-999999999999-111111111111111111111111-999999999999-555555-777777--|
|-777777777777-111111111111111111111111-999999999999-555555-777777--|
|--------------9-9-9-9-9-9-9-9-9-9-9-9--777777777777-333333-555555--|

Verse
|----------------------------------|
|----------------------------------|
|-9----------8---7----11-----------|
|-x----------x---x----x------------|
|-7----------6---5----9------------|
|----------------------------------|

Verse Part 2
|----------------------|------------------------------------|
|---9---9---9--12-10-9-|----7---7---7---7----7---7---7------|
|-9---9---9------------|--8---8---8---8----7---7---7---7----|
|----------------------|------------------------------------|
|----------------------|------------------------------------|
|----x2----------------|------------------------------------|

Chorus
|------x2--------------|---------------------------------------------------|
|----------------------|---------------------------------------------------|
|-999999-111111-131313-|-888888-111111-131313-16-14-13-16-14-13-1616161616-|
|-xxxxxx-x-x-x--x-x-x--|-xxxxxx-x-x-x--x-x-x--x--x--x--x--x--x--x-x-x-x-x--|
|-777777-9-9-9--111111-|-666666-9-9-9--111111-14-12-11-14-12-11-1414141414-|
|----------------------|---------------------------------------------------|

Outro Chorus
|---------------------|--------------------------------------------------|
|---9---9---9-12-10-9-|---9---9---9-12-10-9--12-10-9-12-10-9-1212121212--|
|-9---9---9-----------|-8---8---8------------9--9--9-9--9--9-9-9-9-9-9---|
|---------------------|--------------------------------------------------|
|---------------------|--------------------------------------------------|
|------x2-------------|--------------------------------------------------|

|---------------------|---------------------------------------------|
|---9---9---9-12-10-9-|---9---9---9-12-10-9-------------------------|
|-9---9---9-----------|-8---8---8--------------9---9----9-8-8h9-9---|
|---------------------|----------------------7---7----9-------------|
|---------------------|---------------------------------------------|
|-----x2--------------|---------------------------------------------|

Outro
|-------------------|
|-------------------|
|-9-----------------|
|-9-----------------|
|-7-----------------|
|-------------------|

And There Is Your Design Sir, Enjoy.

Rate And Comment Please!





Comments


Popular Star Fucking Hipsters tabs & chords
Two Cups Of Tea 1 Bass Tabs
Zombie Christ Chords
Death Is Never Out Of Fashion 1 Tabs
Dreams Are Dead Tabs
Immigrants And Hypocrites Tabs
S.F.H. Theme Tabs
Snitch To The Suture Intro Tabs
This Wal Mart Life Tabs
Zombie Christ 2 Tabs
Zombie Christ Intro Tabs


Song lyrics



↑ Back to top | Tablatures and chords are parodies/interpretations of the original songs. You may use it for private study, scholarship, research or language learning purposes only
© 2014 AZChords.com Contact us | Privacy policy | DMCA | Add/correct tabs | Request tabs | Top 50 tabs