» » »

3000 Miles Away Tabs (ver.1)

Artists:  A B C D E F G H I J K L M N O P Q R S T U V W X Y Z # 

3000 Miles Away Tabs (ver.1)

Star Fucking Hipsters
Rating:
5/5 (2 votes)

Hard to play? Try these video lessons and learn fast.
                                                Star f**king Hipsters-3000 Miles Away

KEY:
.=PALM MUTE
b=BEND

Distortion:
e|-------------------------------|\
B|-------------------------------|
G|----8\-----8\-----5\-----------|
D|----8 x5---8 x5---5 x5---6-8---| x4
A|----6/-----5/-----3/-----6-8---|
E|-------------------------4-6---|/

e|----------------------------------------------------------|
B|----------------------------------------------------------|
G|--------------------------------8-8--8-8--5--5-5--5-5-5---|
D|----6--6-6--6-6---8--8-8--8-8---8-8--8-8--5--5-5--5-5-5---|
A|----6--6-6--6-6---8--8-8--8-8---6-6--5-5--3--3-3--3-3-3---|
E|----4--4-4--4-4---6--6-6--6-6-----------------------------|

e|----------------------------------|
B|----------------------------------|
G|----------------------------------|
D|----6--6-6--6-6---8--8-8--8-8-8---|
A|----6--6-6--6-6---8--8-8--8-8-8---|
E|----4--4-4--4-4---6--6-6--6-6-6---|

e|-------------------------------|\
B|-------------------------------|
G|----8\-----8\-----5\-----------|
D|----8 x5---8 x5---5 x5---6-8---| x2
A|----6/-----5/-----3/-----6-8---|
E|-------------------------4-6---|/

e|----------------------------------------------------------|
B|----------------------------------------------------------|
G|--------------------------------8-8--8-8--5--5-5--5-5-5---|
D|----6--6-6--6-6---8--8-8--8-8---8-8--8-8--5--5-5--5-5-5---|
A|----6--6-6--6-6---8--8-8--8-8---6-6--5-5--3--3-3--3-3-3---|
E|----4--4-4--4-4---6--6-6--6-6-----------------------------|

e|--------------------------------------------------------------|
B|--------------------------------------------------------------|
G|--------------------------------8-8--10-10--12-12--12-12-12---|
D|----6--6-6--6-6---8--8-8--8-8---8-8--10-10--12-12--12-12-12---|
A|----6--6-6--6-6---8--8-8--8-8---6-6---8--8--10-10--10-10-10---|
E|----4--4-4--4-4---6--6-6--6-6---------------------------------|

e|----------------------------------------------------------|
B|----------------------------------------------------------|
G|--------------------------------8-8--8-8--5--5-5--5-5-5---|
D|----6--6-6--6-6---8--8-8--8-8---8-8--8-8--5--5-5--5-5-5---|
A|----6--6-6--6-6---8--8-8--8-8---6-6--5-5--3--3-3--3-3-3---|
E|----4--4-4--4-4---6--6-6--6-6-----------------------------|


e|----------------------------------|
B|----------------------------------|
G|----------------------------------|
D|----6--6-6--6-6---8--8-8--8-8-8---|
A|----6--6-6--6-6---8--8-8--8-8-8---|
E|----4--4-4--4-4---6--6-6--6-6-6---|

e|-------------------------------|\
B|-------------------------------|
G|----8\-----8\-----5\-----------|
D|----8 x5---8 x5---5 x5---6-8---| x2
A|----6/-----5/-----3/-----6-8---|
E|-------------------------4-6---|/


e|----------------------------------------------------------|
B|----------------------------------------------------------|
G|--------------------------------8-8--8-8--5--5-5--5-5-5---|
D|----6--6-6--6-6---8--8-8--8-8---8-8--8-8--5--5-5--5-5-5---|
A|----6--6-6--6-6---8--8-8--8-8---6-6--5-5--3--3-3--3-3-3---|
E|----4--4-4--4-4---6--6-6--6-6-----------------------------|

e|--------------------------------------------------------------|
B|--------------------------------------------------------------|
G|--------------------------------8-8--10-10--12-12--12-12-12---|
D|----6--6-6--6-6---8--8-8--8-8---8-8--10-10--12-12--12-12-12---|
A|----6--6-6--6-6---8--8-8--8-8---6-6---8--8--10-10--10-10-10---|
E|----4--4-4--4-4---6--6-6--6-6---------------------------------|

e|----------------------------------------------------------|
B|----------------------------------------------------------|
G|--------------------------------8-8--8-8--5--5-5--5-5-5---|
D|----6--6-6--6-6---8--8-8--8-8---8-8--8-8--5--5-5--5-5-5---|
A|----6--6-6--6-6---8--8-8--8-8---6-6--5-5--3--3-3--3-3-3---|
E|----4--4-4--4-4---6--6-6--6-6-----------------------------|

e|----------------------------------|
B|----------------------------------|
G|----------------------------------|
D|----6--6-6--6-6---8--8-8--8-8-8---|
A|----6--6-6--6-6---8--8-8--8-8-8---|
E|----4--4-4--4-4---6--6-6--6-6-6---|

Guitar 2 during solo:
e|-----------------------------------------------------------------|
B|-----------------------------------------------------------------|
G|-----------------------------------------------------------------|
D|----3--3-3--3-3--3-3-5-6--6-6--6-6--6-6-5-3--3-3--3-3--3-3-5-6---|
A|----3--3-3--3-3--3-3-5-6--6-6--6-6--6-6-5-3--3-3--3-3--3-3-5-6---|
E|----1--1-1--1-1--1-1-3-4--4-4--4-4--4-4-3-1--1-1--1-1--1-1-3-4---|

e|------------------|
B|------------------|
G|------------------|
D|----6666-6666-6---|
A|----6666-6666-6---|
E|----4444-4444-4---|
      .... .... .

Clean:
e|-----------------------------------------------------------------------|
B|---------8---------8--------5------------------------------------------|
G|---------8---------8--------5-------6-------8---------6----------6-----|
D|-------8---8-----8---8-----5--------6-------8---------6----------6-----|
A|----6---------5---------3-----------6-------8-------6---6------6---6---|
E|---------------------------------4-------6-------4----------4----------|
  
  -----------------------------|
  -------6------------8--------|
  ------6---6--------8---8-----|
  ----6-------6----8-------8---|
  --4------------6-------------| 

Distortion:
e|--------------------------------------|\
B|--------------------------------------|
G|----88888888-88888888-55555555--------|
D|----88888888-88888888-55555555--6-8---| x4
A|----66666666-55555555-33333333--6-8---|
E|--------------------------------4-6---|/
      ........ ........ ........

Guitar 2 outro(plays over solo)
e|-------------------------------------------|\
B|-------------------------------------------|
G|----88888888-88888888-55555555-------------|
D|----88888888-88888888-55555555--6666-888---| x9
A|----66666666-55555555-33333333--6666-888---|
E|--------------------------------4444-666---|/

Guitar 1 outro solo(just the main part)
e|-------------------------------------------------------------------------|
B|------------------------------16b-15-16--16-15-16--16-15-16-18b-16-15-16-|
G|8b-7-8--8-7-8--8-7-8-10-8-7-8--------------------------------------------|
D|-------------------------------------------------------------------------|
A|-------------------------------------------------------------------------|
E|-------------------------------------------------------------------------|

End Chords:
e|-------------|
B|-------------|
G|----8~---8---|
D|----8~---8---|
A|----6~---6---|
E|-------------|
            
Hard to play? Try these video lessons and learn fast. | Correct




comments powered by Disqus
↑ Back to top | Tablatures and chords are parodies/interpretations of the original songs. You may use it for private study, scholarship, research or language learning purposes only