>
 >
Wild Life

Wild Life Guitar Tabs

Stanfour - Wild Life chords, tabs, tablatures, lyrics

Guitar lessons | Add/correct | Request | Top 50 tabs Artists:  A B C D E F G H I J K L M N O P Q R S T U V W X Y Z 0-9

Wild Life Guitar Tabs – Stanfour

CD, Sheet music, Poster

Do you like Wild Life? Share with your friends now
Tabs
Hey I'm NOT quite sure whether all the chords are right,
but I think it should suit.....
Please listen to the song for your timing!
Of course the song sounds best with powerchords.

Intro:   |Riff 1|

e|------------------------------|
H|------------------------------|
G|------------------------------|
D|------------------------------|   x2
A|-----7-7-4-4-7-9--------------|
E|-4-4--------------------------|



1. Strophe:  PLAY Riff 1 ALL THROUGH THE VERSE
------------------------------------------------
Save me
Cause I've been thinking 'bout you all the time
I feel there's a part of you that wants me wild
Taste you, do you dare to let me come inside
Love you, I'll love you everyday tonight
E      F#
Oh oh oh oh
------------------------------------------------
Refrain:   
B
I can't wait for your invitation
C#
Yeah, I'm just here on my own vacation
E
And you don't need no explanation
B
It's my wild life
B
I don't care if you slept with millions
C#
Or if you sing like Paris Hilton
E                                             
Yeah, I want you to show me, baby, the wild life
e|------------------------------|
H|------------------------------|
G|------------------------------|
D|------------------------------|  
A|-----7-7-4-4-7-9--------------|
E|-4-4--------------------------|
(Yeah, the wild life)
--------------------------------------------------
2. Strophe:    PLAY Riff 1 AGAIN

Hate me, just because I want you really bad
Show me, I will be so good, I'll pay my share
Try you, yeah tonight it will be you and I
Baby, I will love you till the day I die
E      F#
Oh oh oh oh
------------------------------------------------
Refrain:  
B
I can't wait for your invitation
C#
Yeah, I'm just here on my own vacation
E
And you don't need no explanation
B
It's my wild life
B
I don't care if you slept with millions
C#
Or if you sing like Paris Hilton
E                                                          
Yeah, I want you to show me, baby, the wild life
(Yeah, the wild life)
----------------------------------------------------

Mids:
G#
I just want you
E
I just need you
C#
You can't stop now, oh
F#
Now, you can't stop now
-------------------------------------------------------------
Solo:  B-C#-E-B       |I don't know the right tabs here
                      |but a simple arpeggio(Akkordzerlegung)      
                      |should make a good job.
------------------------------------------------------------- 
Refrain:
B
I can't wait for your invitation
C#
Yeah, I want you to rock my nation
E                                  B
Cause you don't need no education, baby
B
I don't care if you slept with millions
C#
Or if you look like Paris Hilton
E                                          B
Yeah, I want you to show me, baby, the wild life
B            
I don't care if you slept with zillions        
C#                                             PLAY HERE RIFF 2 AND THEN STRAIGHT TO THE OUTRO
Or if you sing like Paris Hilton               THEN STRAIGHT TO THE OUTRO
B                                             <------|e--------------|
Yeah, I want you to show me, baby, the wild life     |H--------------|
                                                     |G--------------|
                                                     |D--------------|
                                                     |A--7-----------|
                                                     |E----9-7-4-----|
---------------------------------------------------------------------|
Outro:                        
            B                     C#
Cause I'll make, I'll make you understand
                   E
I'll make you understand
                   B
I'll make you understand
            B                
Cause I'll make,cause I'll make

PLAY HERE RIFF 1 AGAIN
e|------------------------------|
H|------------------------------|
G|------------------------------|  
D|------------------------------| x2 (Yeah the wild life) 
A|-----7-7-4-4-7-9--------------|
E|-4-4--------------------------|




    e|--------------------------------------|
    H|--------------------------------------|
    G|--------------------------------------|  
    D|--------------------------------------| 
    A|-----7-7-4-4-7-9--------7-7-4-4-7-9---| 
    E|-4-4---------------4-4--------------4-|
Sometimes,I just wake up

----------------------------------------------------------------
That's all.Hope I haven't wrote it too confusing ;)
Much fun!





Comments


Popular Stanfour tabs & chords
For All Lovers Chords
In Your Arms Chords
In Your Arms 1 Chords
Life Without You 1 Chords
Desperate Ukulele
Everything I Am Ukulele
For All Lovers Ukulele
In Your Arms Ukulele
Take Me Or Leave Me Ukulele
Wishing You Well Ukulele


Song lyrics



↑ Back to top | Tablatures and chords are parodies/interpretations of the original songs. You may use it for private study, scholarship, research or language learning purposes only
© 2014 AZChords.com Contact us | Privacy policy | DMCA | Add/correct tabs | Request tabs | Top 50 tabs