» » »

Could It Be Tabs (ver.3)

Artists:  A B C D E F G H I J K L M N O P Q R S T U V W X Y Z # 

Could It Be Tabs (ver.3)

Staind
Rating:
3/5 (4 votes)

Hard to play? Try these video lessons and learn fast.
                Intro/Chorus
|----------------------------------|
|----------------------------------|
|--------------6--6--66--6--6------|
|-5--5--55--5--6--6--66--6--6------|
|-5--5--55--5--4--4--44--4--4------|
|-3--3--33--3----------------------|
|                                  |
|----------------------------------|
|----------------------------------|
|-8--8--88--8--4--4--44--4---------|
|-8--8--88--8--4--4--44--4---------|
|-6--6--66--6--2--2--22--2---------|

|----------------------------------|
            
Hard to play? Try these video lessons and learn fast. | Correct




comments powered by Disqus
↑ Back to top | Tablatures and chords are parodies/interpretations of the original songs. You may use it for private study, scholarship, research or language learning purposes only