>
 >
Could It Be 1

Could It Be 1 Guitar Tabs

Staind - Could It Be 1 chords, tabs, tablatures, lyrics

Guitar lessons | Add/correct | Request | Top 50 tabs Artists:  A B C D E F G H I J K L M N O P Q R S T U V W X Y Z 0-9

Could It Be 1 Guitar Tabs – Staind

CD, Sheet music, Poster

Do you like Could It Be 1? Share with your friends now
Bass TabsChordsTabsTabs v2Tabs v3Ukulele
Staind	
Could It Be
Db-Ab-Db-Gb-Bb-Eb
CheyenneAxeMan		

this song is really cool and sounds great with a little distortion





Intro/Chorus
|---------------------------------------------|
|---------------------------------------------|
|---------------------------------------------|
|𤪧𧯟7--------121212121212----------|
|𤃍𧈅5--------101010101010----------|
|𤃍𧈅5--------101010101010----------|

|-------------------------------------------------------|
|-------------------------------------------------------|
|-------------------------------------------------------|
|171717171717------121212121212--------------|
|141414141414------101010101010--------------|
|141414141414------101010101010--------------|





Verse
(I Think This Is Right)

|--------------------------------------------------------------------|
|--------------------------------------------------------------------|
|------------------11-------------------------------12---------------|
|-------------7---------7----------------------9---------9-----------|
|----------7----7---------7----------------9----9---------9----------|
|--------------------------------------------------------------------|


Bridge
|-------------------------------------------|
|-------------------------------------------|
|-------------------------------------------|
|121212121212--------9𨖹𨖹9------|
|101010101010--------7𧯟𧯟7------|
|101010101010--------7𧯟𧯟7------|


|-------------------------------------------------------------|
|-------------------------------------------------------------|
|-------------------------------------------------------------|
|12--12--12--12--12--12--9--9--9--9--9--9--7--7--7-----------|
|10--10--10--10--10--10--7--7--7--7--7--7--5--5--5-----------|
|10--10--10--10--10--10--7--7--7--7--7--7--5--5--5-----------|





Comments


Popular Staind tabs & chords
Outside Bass Tabs
Right Here 2 Chords
Believe 1 Tabs
Devil Tabs
Layne 1 Tabs
Not Again 1 Tabs
Reality 3 Tabs
Safe Place Tabs
The Bottom 1 Tabs
Zoe Jane 2 Ukulele


Song lyrics



↑ Back to top | Tablatures and chords are parodies/interpretations of the original songs. You may use it for private study, scholarship, research or language learning purposes only
© 2014 AZChords.com Contact us | Privacy policy | DMCA | Add/correct tabs | Request tabs | Top 50 tabs