>
 >
Could It Be

Could It Be Guitar Tabs

Staind - Could It Be chords, tabs, tablatures, lyrics

Guitar lessons | Add/correct | Request | Top 50 tabs Artists:  A B C D E F G H I J K L M N O P Q R S T U V W X Y Z 0-9

Could It Be Guitar Tabs – Staind

CD, Sheet music, Poster

Do you like Could It Be? Share with your friends now
Bass TabsChordsTabsTabs v2Tabs v3Ukulele
Band: Staind
Song Name: Could It Be

==From Low to High==

Elec. Gtr. 1 tuned:

Ab Db Ab Db Eb Ab



Tablature Legend
----------------
L - tied note
s - slide





Ab|------------------------------|--------------------------------|
Eb|------------------------------|--------------------------------|
Db|--7----7--7-7-7--------x--12--|--L----12--12-12-12--12--12-----|
Ab|--5----5--5-5-5s--12---x--10--|--L----10--10-10-10--10--10-----|
Db|--5----5--5-5-5s--12---x--10--|--L----10--10-10-10--10--10-----|
Ab|------------------------------|--------------------------------|

  |----------------------------------|--------------------------------|
  |----------------------------------|--------------------------------|
  |--17----17--17-17-17--16---x--12--|--L----12--12-12-12--12--12-----|
  |--14----14--14-14-14--14---x--10--|--L----10--10-10-10--10--10-----|
  |--14----14--14-14-14--14---x--10--|--L----10--10-10-10--10--10-----|
  |----------------------------------|--------------------------------|

  |------------------------------|--------------------------------|
  |------------------------------|--------------------------------|
  |--7----7--7-7-7--------x--12--|--L----12--12-12-12--12--12-----|
  |--5----5--5-5-5s--12---x--10--|--L----10--10-10-10--10--10-----|
  |--5----5--5-5-5s--12---x--10--|--L----10--10-10-10--10--10-----|
  |------------------------------|--------------------------------|

  |----------------------------------|--------------------------------|
  |----------------------------------|--------------------------------|
  |--17----17--17-17-17--16---x--12--|--L-----------------------------|
  |--14----14--14-14-14--14---x--10--|--L-----------------------------|
  |--14----14--14-14-14--14---x--10--|--L-----------------------------|
  |----------------------------------|--------------------------------|


  #w/ dist.


  |------------------------------|--------------------------------|
  |------------------------------|--------------------------------|
  |--7----7--7-7-7--------x--12--|--L----12--12-12-12--12--12-----|
  |--5----5--5-5-5s--12---x--10--|--L----10--10-10-10--10--10-----|
  |--5----5--5-5-5s--12---x--10--|--L----10--10-10-10--10--10-----|
  |------------------------------|--------------------------------|

  |----------------------------------|--------------------------------|
  |----------------------------------|--------------------------------|
  |--17----17--17-17-17--16---x--12--|--L----12--12-12-12--12--12-----|
  |--14----14--14-14-14--14---x--10--|--L----10--10-10-10--10--10-----|
  |--14----14--14-14-14--14---x--10--|--L----10--10-10-10--10--10-----|
  |----------------------------------|--------------------------------|

  |------------------------------|--------------------------------|
  |------------------------------|--------------------------------|
  |--7----7--7-7-7--------x--12--|--L----12--12-12-12--12--12-----|
  |--5----5--5-5-5s--12---x--10--|--L----10--10-10-10--10--10-----|
  |--5----5--5-5-5s--12---x--10--|--L----10--10-10-10--10--10-----|
  |------------------------------|--------------------------------|

  |----------------------------------|--------------------------------|
  |----------------------------------|--------------------------------|
  |--17----17--17-17-17--16---x--12--|--L-----------------------------|
  |--14----14--14-14-14--14---x--10--|--L-----------------------------|
  |--14----14--14-14-14--14---x--10--|--L-----------------------------|
  |----------------------------------|--------------------------------|


  #VERSE (clean-tone)


  |---------------------------------|--------------------------------|
  |-------0------14--L--------------|------0------15--L--14----------|
  |*---------12---------12----------|---------12-------------12------|
  |*--14--------------------14------|--14------------------------14--|
  |---14------------------------14--|--14----------------------------|
  |---------------------------------|--------------------------------|

									3x
  |-------------------------------|-------------------------------------||
  |------0------14--L-------------|------10-----------------------------||
  |---------12---------12---------|--12------10--12--(12)p--10---------*||
  |--14--------------------14-----|--10-------------------------10-----*||
  |--14------------------------0--|--10-----------------------------0---||
  |-------------------------------|-------------------------------------||


  #CHORUS (w/ dist.)

  |-------------------------------|--------------------------------|
  |-------------------------------|--------------------------------|
  |*--7----7--7-7-7--------x--12--|--L----12--12-12-12--12--12-----|
  |*--5----5--5-5-5s--12---x--10--|--L----10--10-10-10--10--10-----|
  |---5----5--5-5-5s--12---x--10--|--L----10--10-10-10--10--10-----|
  |-------------------------------|--------------------------------|

								      x3
  |----------------------------------|--------------------------------||
  |----------------------------------|--------------------------------||
  |--17----17--17-17-17--16---x--12--|--L----12--12-12-12--12--12----*||
  |--14----14--14-14-14--14---x--10--|--L----10--10-10-10--10--10----*||
  |--14----14--14-14-14--14---x--10--|--L----10--10-10-10--10--10-----||
  |----------------------------------|--------------------------------||

  |------------------------------|--------------------------------|
  |------------------------------|--------------------------------|
  |--7----7--7-7-7--------x--12--|--L----12--12-12-12--12--12-----|
  |--5----5--5-5-5s--12---x--10--|--L----10--10-10-10--10--10-----|
  |--5----5--5-5-5s--12---x--10--|--L----10--10-10-10--10--10-----|
  |------------------------------|--------------------------------|

  |----------------------------------|--------------------------------|
  |----------------------------------|--------------------------------|
  |--17----17--17-17-17--16---x--12--|--L-----------------------------|
  |--14----14--14-14-14--14---x--10--|--L-----------------------------|
  |--14----14--14-14-14--14---x--10--|--L-----------------------------|
  |----------------------------------|--------------------------------|


  #BRIDGE (w/ dist.)
    
  |-----------------------|--------------------------|
  |-----------------------|--------------------------|
  |*------------9----9----|--------------10----10----|
  |*--7------7--7----7----|--10------10--10----10----|
  |---9------9--9----9----|--10------10--10----10----|
  |---7------7--7----7----|--10------10--10----10----|

						     4x
  |-----------------------|--------------------------||
  |-----------------------|--------------------------||
  |--5------5--5----5-----|-------------------------*||
  |--5------5--5----5--5--|--L--5----5--L--5--5--5--*||
  |--5------5--5----5--4--|--L--4----4--L--4--4--4---||
  |-----------------------|--------------------------||


  #INTERLUDE (clean-tone)


  |--------------------------------|--------------------------------|
  |------0------14--L--------------|------0------15--L--14----------|
  |---------12---------12----------|---------12-------------12------|
  |--14--------------------14------|--14------------------------14--|
  |--14------------------------14--|--14----------------------------|
  |--------------------------------|--------------------------------|

  |-------------------------------|------------------------------------|
  |------0------14--L-------------|------10----------------------------|
  |---------12---------12---------|--12------10--12--(12)p--10---------|
  |--14--------------------14-----|--10-------------------------10-----|
  |--14------------------------0--|--10-----------------------------0--|
  |-------------------------------|------------------------------------|

  |--------------------------------|--------------------------------|
  |------0------14--L--------------|------0------15--L--14----------|
  |---------12---------12----------|---------12-------------12------|
  |--14--------------------14------|--14------------------------14--|
  |--14------------------------14--|--14----------------------------|
  |--------------------------------|--------------------------------|

  |-------------------------------|---------------------|
  |------0------14--L-------------|---------------------|
  |---------12---------12---------|--12-----------------|
  |--14--------------------14-----|--10-----------------|
  |--14------------------------0--|--10-----------------|
  |-------------------------------|---------------------|


  #OUTRO (w/ dist)

  |-------------------------------|--------------------------------|
  |-------------------------------|--------------------------------|
  |*--7----7--7-7-7--------x--12--|--L----12--12-12-12--12--12-----|
  |*--5----5--5-5-5s--12---x--10--|--L----10--10-10-10--10--10-----|
  |---5----5--5-5-5s--12---x--10--|--L----10--10-10-10--10--10-----|
  |-------------------------------|--------------------------------|

								      x3
  |----------------------------------|--------------------------------||
  |----------------------------------|--------------------------------||
  |--17----17--17-17-17--16---x--12--|--L----12--12-12-12--12--12----*||
  |--14----14--14-14-14--14---x--10--|--L----10--10-10-10--10--10----*||
  |--14----14--14-14-14--14---x--10--|--L----10--10-10-10--10--10-----||
  |----------------------------------|--------------------------------||

  |------------------------------|--------------------------------|
  |------------------------------|--------------------------------|
  |--7----7--7-7-7--------x--12--|--L----12--12-12-12--12--12-----|
  |--5----5--5-5-5s--12---x--10--|--L----10--10-10-10--10--10-----|
  |--5----5--5-5-5s--12---x--10--|--L----10--10-10-10--10--10-----|
  |------------------------------|--------------------------------|

  |----------------------------------|--------------------------------|
  |----------------------------------|--------------------------------|
  |--17----17--17-17-17--16---x--12--|--L----12--12-12-12--12--12-----|
  |--14----14--14-14-14--14---x--10--|--L----10--10-10-10--10--10-----|
  |--14----14--14-14-14--14---x--10--|--L----10--10-10-10--10--10-----|
  |----------------------------------|--------------------------------|

  |-------------------|
  |-------------------|
  |--L----------------|
  |--L----------------|
  |--L----------------|
  |-------------------|





Comments


Popular Staind tabs & chords
Bring The Noise 1 Bass Tabs
Fade 3 Bass Tabs
Fade Chords
Right Here Chords
Its Been Awhile 4 Tabs
Just Go 2 Tabs
Open Your Eyes Tabs
The Bottom 1 Tabs
Open Your Eyes Ukulele
The Truth Ukulele


Song lyrics



↑ Back to top | Tablatures and chords are parodies/interpretations of the original songs. You may use it for private study, scholarship, research or language learning purposes only
© 2014 AZChords.com Contact us | Privacy policy | DMCA | Add/correct tabs | Request tabs | Top 50 tabs