» » »

Staind, Come Again Tabs (ver.3)

Artists:  A B C D E F G H I J K L M N O P Q R S T U V W X Y Z # 

Come Again Tabs (ver.3)

Staind Tabs
 Rating:
4/5 (4 votes)
Come Again lessons Tabs too difficult? Try these video lessons and learn fast
                Come Again by: Staind

Tuning (low to high) Db Ab Db Gb Bb Eb

There is 2 guitars in this song but I'm going to tab it out if you 
want to play this in your band or something and you only have one guitar player. 

/ = slide up
\ = slide down
<> = harmonic
p.m = palm mute

INTRO/CHORUS

|---------------|--------------------------------------|
|--volume swell-|--------------------------------------|
|---<7>---------|--------------------------------------|
|---------------|-0---3---6---0-3---6---0-0-0-0--------|
|---------------|-0---3---6---0-3---6---0-0-0-0--------|
|---------------|-0---3---6---0-3---6---0-0-0-0--------|
p.m                                     . . . . 

FIRST PART OF VERSE

|--------------------------------|
|-7--7--12/13\12----7----17------|
|-6--6--11/12\11----6----16------|
|--------------------------------|
|--------------------------------|
|--------------------------------|

SECOND PART OF VERSE

|-----------------------------------------|
|-----------------------------------------|
|-----------------------------------------|
|--0---6h7-------<7>----0-3-6-3-0-0-------|
|--0---6h7--<7>---------0-3-6-3-0-0-------|
|--0---6h7----------<7>-0-3-6-3-0-0-------|
   .   . .              . . . . . . 

CHORUS

|----------------------------------|
|----------------------------------|
|----------------------------------|
|---0---3---6---0--3--6--0-0-0-0---|
|---0---3---6---0--3--6--0-0-0-0---|
|---0---3---6---0--3--6--0-0-0-0---|
p.m                      . . . . 

FIRST PART OF BRIDGE

|-----------------------------------------|
|-----------------------------------------|
|-----------------------------------------|
|---7h8-------8p7------7--0-3-6-3-0-0-0---|
|---7h8--0-0--8p7---0--7--0-3-6-3-0-0-0---|
|---7h8--0-0--8p7---0--7--0-3-6-3-0-0-0---|
p.m      . .        .     . . . . . . .

SECOND PART OF BRIDGE

|----------------------------------|--------------------------------------|
|----------------------------------|--------------------------------------|
|----------------------------------|--------------------------------------|
|----------------------------------|-2-X-X-X-X-9\8-X-8\7------------------|
|--0-x-x-x-x-/7-x-/4\-x-x-3\-x-x---|-0-X-X-X-X-7\6-X-6\5--0-0-0-0-0-0-0-0-|
|----------------------------------|----------------------0-0-0-0-0-0-0-0-|
                                                          . . . . . . . .

OUTRO

|-------------------------------------|
|-------------------------------------|
|-------------------------------------|
|-2-x-x-x-x-9\8-x-6-------------------|
|-0-x-x-x-x-7\6-x-4-0-0-0-0-0-0-0-0---|
|-------------------0-0-0-0-0-0-0-0---|
p.m                 . . . . . . . .
            
Submit corrections

comments powered by Disqus
↑ Back to top | Staind Tabs for Come Again. Lyrics for acoustic guitar and electric guitar. Tablatures and chords are parodies/interpretations of the original songs. You may use it for private study, scholarship, research or language learning purposes only