» » »

Change Bass tabs (ver.1)

Artists:  A B C D E F G H I J K L M N O P Q R S T U V W X Y Z # 

Change Bass tabs (ver.1)

Staind
Rating:
0/5 (0 votes)

Hard to play? Try these video lessons and learn fast.
                Staind - Change

bass tab


5-stringed bass
G D A E B

   INTRO
G-|--------------------------------|
D-|--------------------------------|
A-|--------------------------------|
E-|--------------------------------|
B-|-222222-0----222222-0----2/5----|
                                                                              

   VERSO
G-|-----------*----------|
D-|-----------*----------|
A-|-----2-222-*----2-222-|
E-|-----------*4-4-------|
B-|-2-2-------*----------|
                                                                              

   BREAK
G-|----------|
D-|----------|
A-|----------|
E-|-44444444-|
B-|----------|
                                                                              

   CORO
G-|--------------------|------------------------------|
D-|--------------------|------------------------------|
A-|--------------------|------------------------------|
E-|-7----\2----222-222-|------------------------------|
B-|--------------------|-2----/5----2----/5----2/5----|
                                                                              

   MIDDLE
G-|-----------------------------|
D-|-----------------------------|
A-|-----------------------------|
E-|-----------------------------|
B-|-2----2----2-2----x-0-2/5----|
                                                                              
Mando harta congratulacion al Hebert M. que es baterista de la banda que estoy ps, pero no tiene nombre
todavia. este chango ps no tiene su bateria pero toca bien a lo tara, cuando hemos ido
a una sala lo ha roto ps el pedal del bombo, ajaja, pero le dijimos al dueño que se rompio asi
de la nada siempre y nos fuimos corriendo mas no volvimos a esa sala de ensayos.

doky2007
            
Hard to play? Try these video lessons and learn fast. | Correct




comments powered by Disqus
↑ Back to top | Tablatures and chords are parodies/interpretations of the original songs. You may use it for private study, scholarship, research or language learning purposes only