>
 >
Cant Believe 3

Cant Believe 3 Guitar Tabs

Staind - Cant Believe 3 chords, tabs, tablatures, lyrics

Guitar lessons | Add/correct | Request | Top 50 tabs Artists:  A B C D E F G H I J K L M N O P Q R S T U V W X Y Z 0-9

Cant Believe 3 Guitar Tabs – Staind

CD, Sheet music, Poster

Do you like Cant Believe 3? Share with your friends now
Tabs
----------------------------------------------------------------------------
                             Can't Believe - Staind
----------------------------------------------------------------------------


Tuning: Drop B (B F# B E G# C#)



Mike Mushok usually uses a baritone guitar but i dont hav one 
of those so this is about how i play it, or at least pretty close

i kno its a pretty low tuning but i think it 
sounds rite and i think it sounds the best in this 
tuning.. the open note in the chorus sounds good this way too

u dont hav to play it exactly like its tabbed.. 
just listen to it and and use this as a guide




Intro: play 4 times

          
C#|---------------------------------------|
G#|---------------------------------------|
E |---------------------------------------|
B |--5--5555--5-5----7--7--7--10---10-10--|
F#|--5--5555--5-5----8--8--8--8----8--8---|
B |--5--5555--5-5----8--8--8--8----8--8---|
        ....


Pre-Verse:


C#|-----------------------------------------------------------------------|
G#|--10----------------10-------11/13------10----------------10-------11--|
E |-----10----10-12-------10------------------10----10-12-------10--------|
B |--------12-------12-------12------------------12-------12-------12-----|
F#|-----------------------------------------------------------------------|
B |-----------------------------------------------------------------------| 


Verse: play 4 times


C#|---------------------------------------|
G#|---------------------------------------|
E |---------------------------------------|
B |--5--5555--5-5----7--7--7--10---10-10--|
F#|--5--5555--5-5----8--8--8--8----8--8---|
B |--5--5555--5-5----8--8--8--8----8--8---| 
        ....



Chorus: this is the part i change around a lot when i play it..
        sometimes i just play each note once and let it ring..
        just mess around with it to see what u think sounds best


C#|--------------------------------------------------------------------------|
G#|--------------------------------------------------------------------------|
E |--------------------------------------------------------------------------|
B |--0-0-0-0--3-3-3-3--0-0-0-0--3-3-3-3--0-0-0-0--3-3-3-3--0-0-0-0--3-3-3-2--|
F#|--0-0-0-0--3-3-3-3--0-0-0-0--3-3-3-3--0-0-0-0--3-3-3-3--0-0-0-0--3-3-3-2--|
B |--0-0-0-0--3-3-3-3--0-0-0-0--3-3-3-3--0-0-0-0--3-3-3-3--0-0-0-0--3-3-3-2--|



Post-Chorus Fill: i sometimes use slides for all 
                  these notes but u can do w/e u want


C#|------------------------------------|
G#|------------------------------------|
E |--7--10--7-10--7----7--10--7-10--7--|
B |------------------------------------|
F#|------------------------------------|
B |------------------------------------|


i think thats pretty much it, just 
listen to it to figure out the order

Lemme kno if u got any questions




| .  palm mute
| /  slide up
| \  slide down
| h  hammer-on
| p  pull-off
| ~  vibrato
| +  harmonic
| x  Mute note
============================================================================





Comments


Popular Staind tabs & chords
Right Here 2 Bass Tabs
Zoe Jane Bass Tabs
Everything Changes 1 Chords
Outside 3 Chords
Cross To Bear 1 Tabs
Excess Baggage 4 Tabs
Its Been Awhile 8 Tabs
Just Go 2 Tabs
Nutshell Tabs
Outside Studio Tabs


Song lyrics



↑ Back to top | Tablatures and chords are parodies/interpretations of the original songs. You may use it for private study, scholarship, research or language learning purposes only
© 2014 AZChords.com Contact us | Privacy policy | DMCA | Add/correct tabs | Request tabs | Top 50 tabs