>
 >
Can Believe

Can Believe Guitar Tabs

Staind - Can	 Believe chords, tabs, tablatures, lyrics

Guitar lessons | Add/correct | Request | Top 50 tabs Artists:  A B C D E F G H I J K L M N O P Q R S T U V W X Y Z 0-9

Can Believe Guitar Tabs – Staind

CD, Sheet music, Poster

Do you like Can Believe? Share with your friends now
Tabs
Tuning: Bb  Eb Ab Db Gb Bb


Intro:
|-------------------------------------|
|-------------------------------------|
|-------------------------------------| x4
|-10--x-x-x-6-8-8--/10--10--13--13-13-|
|-8---x-x-x-8-8-8--/11--11--11--11-11-|
|-6---x-x-x-6-6-6--/9---9---9---9--9--|

-clean w/flanger
|---------------------------------------------------------------------|
|-12------8h10------12-------13----15\--12------8h10------12-------13-|
|----10--------10------13------------------10--------10------13-------|
|-------8---------8-------11----11------------8---------8-------11----|
|---------------------------------------------------------------------|
|---------------------------------------------------------------------|

Verse 1:
|-------------------------------------|
|-------------------------------------|
|-------------------------------------| x4
|-10--x-x-x-6-8-8--/10--10--13--13-13-|
|-8---x-x-x-8-8-8--/11--11--11--11-11-|
|-6---x-x-x-6-6-6--/9---9---9---9--9--|

Chorus 1:
|------------------------------------------------------------|
|------------------------------------------------------------|
|------------------------------------------------------------|
|----------------6--6-6-6-6--6-----------------6--6-6-6-6--6-|
|-3--3-3-3-3--3--4--4-4-4-4--4--3--3-3-3-3--3--4--4-4-4-4--4-|
|-1--1-1-1-1--1--4--4-4-4-4--4--1--1-1-1-1--1--4--4-4-4-4--4-|

|------------------------------------------------------------|
|------------------------------------------------------------|
|------------------------------------------------------------|
|----------------6--6-6-6-6--6-----------------6--6-5-5-5--5-|
|-3--3-3-3-3--3--4--4-4-4-4--4--3--3-3-3-3--3--4--4-3-3-3--3-|
|-1--1-1-1-1--1--4--4-4-4-4--4--1--1-1-1-1--1--4--4-3-3-3--3-|

Port-chorus 1: w/tremolo picking
|-13--/16----13--16---13---|
|--------------------------|
|-10--/13----10--13---10---| x2
|--------------------------|
|--------------------------|
|--------------------------|

Interlude 1: clean w/flanger
|---------------------------------------------------------------------|
|-12------8h10------12-------13----15\--12------8h10------12-------13-|
|----10--------10------13------------------10--------10------13-------|
|-------8---------8-------11----11------------8---------8-------11----|
|---------------------------------------------------------------------|
|---------------------------------------------------------------------|

Verse 2: same as verse 1

Chorus 2: same as chorus 1

Interlude 2: same as interlude 1 x2

Verse 3: same as verse 1

Chorus 3:
|------------------------------------------------------------|
|------------------------------------------------------------|
|------------------------------------------------------------|
|----------------6--6-6-6-6--6-----------------6--6-6-6-6--6-|
|-3--3-3-3-3--3--4--4-4-4-4--4--3--3-3-3-3--3--4--4-4-4-4--4-|
|-1--1-1-1-1--1--4--4-4-4-4--4--1--1-1-1-1--1--4--4-4-4-4--4-|

|------------------------------------------------------------|
|------------------------------------------------------------|
|------------------------------------------------------------|
|----------------6--6-6-6-6--6-----------------6--6-6-6-6--6-|
|-3--3-3-3-3--3--4--4-4-4-4--4--3--3-3-3-3--3--4--4-4-4-4--4-|
|-1--1-1-1-1--1--4--4-4-4-4--4--1--1-1-1-1--1--4--4-4-4-4--4-|

|------------------------------------------------------------|
|------------------------------------------------------------|
|------------------------------------------------------------|
|----------------6--6-6-6-6--6-----------------6--6-6-6-6--6-|
|-3--3-3-3-3--3--4--4-4-4-4--4--3--3-3-3-3--3--4--4-4-4-4--4-|
|-1--1-1-1-1--1--4--4-4-4-4--4--1--1-1-1-1--1--4--4-4-4-4--4-|

|------------------------------------------------------------|
|------------------------------------------------------------|
|------------------------------------------------------------|
|----------------6--6-6-6-6--6-----------------6--6-5-5------|
|-3--3-3-3-3--3--4--4-4-4-4--4--3--3-3-3-3--3--4--4-3-3------|
|-1--1-1-1-1--1--4--4-4-4-4--4--1--1-1-1-1--1--4--4-3-3------|



Tablature Keys:

h - hammer on
p - pull off
b - bend
r - relese bend
~ - sustain
/ - slide up
\ - slide down
v - vibrato
* - trill
x - mute string
pm - palm mute
nh - natural harmonic
ph - pinch harmonic
x\\\ - pick scrape (direction same as slide)





Comments


Popular Staind tabs & chords
Everything Changes Bass Tabs
A Flat Chords
Epiphany 7 Chords
Epiphany Complete Chords
Could It Be 1 Tabs
Everything Changes 3 Tabs
It's Been A While 1 Tabs
Outside 1 Tabs
Spleen Ukulele
Zoe Jane Ukulele


Song lyrics



↑ Back to top | Tablatures and chords are parodies/interpretations of the original songs. You may use it for private study, scholarship, research or language learning purposes only
© 2014 AZChords.com Contact us | Privacy policy | DMCA | Add/correct tabs | Request tabs | Top 50 tabs