» » »

Staind, Bring The Noise Bass tabs (ver.1)

Artists:  A B C D E F G H I J K L M N O P Q R S T U V W X Y Z # 

Bring The Noise Bass tabs (ver.1)

Staind Tabs
 Rating:
2.7/5 (7 votes)
Bring The Noise lessons Tabs too difficult? Try these video lessons and learn fast
1
                Tune the E string to drop D.Even though the bassist used a 5string, 
this version sounds pretty good. Just listen to the song for timing.

h = hammer on
~ = let note sound out

G|--------------------|
D|--------3-2-1-0h2-0-|       
A|--2-2-0-------------|
D|--------------------|

(CHORUS)
G|------------|------------|
D|------------|------------|
A|------------|------------|
D|-66-0-6666-0|-66-0-6666-0|

(BRIDGE)
1st part:when the music slows down
G|------------------------|
D|------------------------|
A|------------------------|
D|-0~---0~---0~---0~------|

2nd part:(Fred says "Bring that...f*cking...noise and GET THE F*CK UP!"
When music speeds up.
G|------------|------------|
D|------------|------------|
A|------------|------------|
D|-66-0-6666-0|-66-0-6666-0|

(ENDING)play open when he mumbles
G|--------------------------|
D|--------------------------|
A|--------------------------|
D|0--0--0-----------0--0--0-|
Thats It!!!

This is my first tab so please rate/comment on it!!!

ORDER:
INTRO          x4
VERSE 1        x8
CHORUS         x4
VERSE 2        x4
CHORUS         x4
VERSE 3        x8
BRIDGE part 1  x2 (dont repeat the last 0~ the second time)
BRIDGE part 2  x4 
ENDING         x3
            
Submit corrections

comments powered by Disqus
↑ Back to top | Staind Bass for Bring The Noise. Lyrics for acoustic guitar and electric guitar. 1 Tablatures and chords are parodies/interpretations of the original songs. You may use it for private study, scholarship, research or language learning purposes only