» » »

Staind, Bring The Noise Tabs (ver.1)

Artists:  A B C D E F G H I J K L M N O P Q R S T U V W X Y Z # 

Bring The Noise Tabs (ver.1)

Staind Tabs
 Rating:
4/5 (8 votes)
Bring The Noise lessons Tabs too difficult? Try these video lessons and learn fast
                This is Staind's "Break The Noise" with Limp Bizkit.


I figured out theres two ways to play it (so far) depending on how your guitar is tuned...


Way One:
|-----------------------|
|-----------------------|
|-----------------------|
|--3-3--2/8-7-6--6-6-8--|
|--3-3--2/8-7-6--6-6-8--|
|--3-3--2/8-7-6--6-6-8--|


Way Two:
|-----------------------|
|-----------------------|
|-----------------------|
|--1-1--0-6-5-4--4-4-6--|
|--1-1--0-6-5-4--4-4-6--|
|--1-1--0-6-5-4--4-4-6--|
            
Submit corrections

comments powered by Disqus
↑ Back to top | Staind Tabs for Bring The Noise. Lyrics for acoustic guitar and electric guitar. Tablatures and chords are parodies/interpretations of the original songs. You may use it for private study, scholarship, research or language learning purposes only