>
 >
Break The Cycle

Break The Cycle Guitar Tabs

Staind - Break The Cycle chords, tabs, tablatures, lyrics

Guitar lessons | Add/correct | Request | Top 50 tabs Artists:  A B C D E F G H I J K L M N O P Q R S T U V W X Y Z 0-9

Break The Cycle Guitar Tabs – Staind

CD, Sheet music, Poster

Do you like Break The Cycle? Share with your friends now
Tabs
Songs:

1  - Open your eyes
2  - Pressure
3  - Fade
4  - It's been awhile
5  - Change
6  - Can't belive
7  - Epiphany
8  - Suffer
9  - Warm safe place
10 - For you
11 - Outside
12 - Waste
13 - Take it


1  - Open your eyes

Tuning: Ab Db Ab Db Gb Bb

Intro 1: w/light distortion and flanger
|-----------------------------------------------|
|-----------------------------------------------|
|-12-------11----11-11---12-------11----11-11---|
|-9-----9--9-----9--9--0-0-----0--0-----0--0--0-|
|-9-----9--9-----9--9----14----14-14----14-14---|
|-----------------------------------------------|

|-----------------------------------------------|
|-----------------------------------------------|
|-12-------11----11-11---12-------11------------|
|-9-----9--9-----9--9--0-0-----0--0-------------|
|-9-----9--9-----9--9----14----14-14------------|
|-----------------------------------------------|

Intro 2: w/dist.
|-------------------------------------------------------|
|-----------------------4-------------------------4-5---|
|---------0-------------------------0-----------------4-|
|---------0-------------------------0-------------------|
|-4---4-4-0-4---4---4-4-----4---4-4-0-4---4---4-4-------|
|-0h2-2-2---2---0---2-2-----0h2-2-2---2---0---2-2-------|
Nh                      .                         . . .

|-------------------------------------------------------|
|-----------------------4-------------------------------|
|---------0-------------------------0-------------------|
|---------0-------------------------0-------------------|
|-4---4-4-0-4---4---4-4-----4---4-4-0-4---4---4-4-5\4-4-|
|-0h2-2-2---2---0---2-2-----0h2-2-2---2---0---2-2-3\2-2-|
Nh                      .

|-------------------------------------------------------|
|-----------------------4-------------------------4-5---|
|---------0-------------------------0-----------------4-|
|---------0-------------------------0-------------------|
|-4---4-4-0-4---4---4-4-----4---4-4-0-4---4---4-4-------|
|-0h2-2-2---2---0---2-2-----0h2-2-2---2---0---2-2-------|
Nh                      .                         . . .

|-------------------------------------------------------|
|-----------------------4-------------------------------|
|---------0-------------------------0-------------9\----|
|---------0-------------------------0-------------x-----|
|-4---4-4-0-4---4---4-4-----4---4-4-0-4---4---4-4-9\----|
|-0h2-2-2---2---0---2-2-----0h2-2-2---2---0---2-2-------|
Nh                      .

Verse 1: w/light distortion and flanger
|-----------------------------------------------|
|-----------------------------------------------|
|-12-------11----11-11---12-------11----11-11---| x8
|-9-----9--9-----9--9--0-0-----0--0-----0--0--0-|
|-9-----9--9-----9--9----14----14-14----14-14---|
|-----------------------------------------------|

Chorus 1: w/dist.
|---------------------------------------------------|
|---------------------------------------------------|
|-----------------------------------12-12-12--12----|
|-----------------------------------10-10-10--10----|
|-12----12----14--14-14--9-----9----10-10-10--10----|
|-10----10----12--12-12--7-----7--------------------|

|---------------------------------------------------|
|---------------------------------------------------|
|-----------------------------------10-10-10--10----|
|-----------------------------------8--8--8---8-----|
|-12----12----14--14-14--9-----9----8--8--8---8-----|
|-10----10----12--12-12--7-----7--------------------|

|---------------------------------------------------|
|---------------------------------------------------|
|-------------7---7--7--------------12-12-12--12----|
|-------------7---7--7--------------10-10-10--10----|
|-12----12----7---7--7---9-----9----10-10-10--10----|
|-10----10---------------7-----7--------------------|

|---------------------------------------------------|
|---------------------------------------------------|
|-------------7---7--7--------------10-10-10--10----|
|-------------7---7--7--------------8--8--8---8-----|
|-12----12----7---7--7---9-----9----8--8--8---8-----|
|-10----10---------------7-----7--------------------|

Verse 2: same as verse 1

Chorus 2: same as chorus 1

Bridge:
|-------------------------------------|
|-------0-----------------0------0----|
|-16--------16---16-12--------12---12-| x6
|-0------------0----10----------------|
|-0-----------------0-----------------|
|-------------------10----------------|

Verse 3: same as verse 1 x4

Chorus 3:
|---------------------------------------------------|
|---------------------------------------------------|
|-------------7---7--7--------------12-12-12--12----|
|-------------7---7--7--------------10-10-10--10----|
|-12----12----7---7--7---9-----9----10-10-10--10----|
|-10----10---------------7-----7--------------------|

|---------------------------------------------------|
|---------------------------------------------------|
|-------------7---7--7--------------10-10-10--10----|
|-------------7---7--7--------------8--8--8---8-----|
|-12----12----7---7--7---9-----9----8--8--8---8-----|
|-10----10---------------7-----7--------------------|

|---------------------------------------------------|
|---------------------------------------------------|
|-------------7---7--7--------------12-12-12--12----|
|-------------7---7--7--------------10-10-10--10----|
|-12----12----7---7--7---9-----9----10-10-10--10----|
|-10----10---------------7-----7--------------------|

|---------------------------------------------------|
|---------------------------------------------------|
|-------------7---7--7------------------------------|
|-------------7---7--7----------------9------10-----|
|-12----12----7---7--7---9-----9----9-9-9-10-10-10--|
|-10----10---------------7-----7----7---7-8-----8---|

Outro:
|-------------------------------------------------------|
|-----------------------4-------------------------4-5---|
|---------0-------------------------0-----------------4-| x2
|---------0-------------------------0-------------------|
|-4---4-4-0-4---4---4-4-----4---4-4-0-4---4---4-4-------|
|-0h2-2-2---2---0---2-2-----0h2-2-2---2---0---2-2-------|
Nh                      .                         . . .



2  - Pressure

Tuning: Ab Db Ab Db Gb Bb

Intro: x3
|---------------------------------------------|
|---------------------------------------------|
|-----6------------6---------6----------------|
|--------------------6--------------------7-6-|
|-6-6---6-6--6-6-6---7---6-6---6-6--6-6-6---7-|
|-4-4---4-4--4-4-4---5---4-4---4-4--4-4-4---5-|

|---------------------------------------------|
|---------------------------------------------|
|-----6------------6---------6----------------|
|--------------------6---------------------6--|
|-6-6---6-6--6-6-6---7---6-6---6-6--6-6-6--7--|
|-4-4---4-4--4-4-4---5---4-4---4-4--4-4-4-----|


Verse: x2 w/ volume swells
|-----------------|
|---------11------|
|---------14-p-13-|
|-----------------|
|-----------------|
|-----------------|

Pre-chorus 1:
|-----------------------------------------------|
|-----------------------------------------------|
|-----6------------6-----------6----------------| x2
|-------------------------------------------7---|
|-6-6---6-6--6-6-6---6-6--6--6---6-6--6-6-6---7-|
|-4-4---4-4--4-4-4---4-4--4--4---4-4--4-4-4---5-|

|-----------------------------------------------|
|----------------------------------8------------|
|-----6------------6-------------6--------------| x1
|----------------------------------6------------|
|-6-6---6-6--6-6-6---6-6--6--6-6---7------------|
|-4-4---4-4--4-4-4---4-4--4--4-4----------------|

Chorus 1: x2
|-------------------------------------------------|
|-------------------------------------------------|
|-4--4--0--0--------------4--4--0--0----------5-2-|
|-4--4--0--0--2--2--2--2--4--4--0--0-2--2--2--5-2-|
|-4--4--0--0--4--4--4--4--4--4--0--0-4--4--4--5-2-|
|-------------2--2--2--2-------------2--2--2------|

Verse 2: same verse 1

Pre-chorus 2: same pre-chorus 1

Chorus 2: same prechorus 1

Interlude:
|---------------------------------|
|-6---6-6-6---6-6-6-6-6-6-6-6-6-6-|
|-4---4-4-4---4-4-4-4-4-4-4-4-4-4-| x2
|-4h5-5-5-5p4-4-4-4-4-4-4-4-4-4-4-|
|---------------------------------|
|---------------------------------|

Bridge:
|-------------------------------------------|
|-------------------------------------------|
|-------------------------------------------| x4
|-----------------------------7--7-7--7-7-0-|
|-----4-4-----4-4-4-------4-6-6--6-6--6-6-0-|
|-5p4-4-4-5p4-4-4-4p0-5p4-4-7-7--7-7--7-7---|

Chorus 3: same chorus 1

Outro:
|---------------------------------------------|
|---------------------------------------------|
|-----6------------6---------6----------------|
|--------------------6--------------------7-6-|
|-6-6---6-6--6-6-6---7---6-6---6-6--6-6-6---7-|
|-4-4---4-4--4-4-4---5---4-4---4-4--4-4-4---5-|

|---------------------------------------------|
|---------------------------------------------|
|-----6------------6------------6-------------|
|--------------------6---4--4-4---6-----------|
|-6-6---6-6--6-6-6---7---6--6-6---7-----------|
|-4-4---4-4--4-4-4---5---4--4-4---------------|



3  - Fade

Tuning: Ab Eb Ab Db Gb Bb

Intro part 1:

Guitar 1: w/flanger
|-0------------|
|-0------------|
|-9------------| x4
|-7------------|
|-0------------|
|-7------------|

Intro part 2:

Guitar 1:
|-------------------------------------------------|
|-------------------------------------------------|
|-------------------------------------------------| x4
|-------------------------------------------------|
|-5-h-7----7--7-p-5-5--5---5\3-----5--3h5---5--0--|
|-7--------7--7-----7--7---5\3-----5--3h5---5--0--|

Guitar 2:
|-------------------------------------------------|
|-11/12-12-12-12/14-14-14-14\12-12\11-11\9--9--11-|
|-x-----x--x--x-----x--x--x-----x-----x-----x--x--|
|-9-/10-10-10-10/12-12-12-12\10-10\9--9-\7--7--9--|
|-------------------------------------------------|
|-------------------------------------------------|

|-------------------------------------------------|
|-11/12-12-12-12/14-14-14-14\12-12/16-16\14-14\12-|
|-x-----x--x--x-----x--x--x-----x-----x-----x-----|
|-9-/10-10-10-10/12-12-12-12\10-10/14-14\12-12\10-|
|-------------------------------------------------|
|-------------------------------------------------|

|-------------------------------------------------|
|-11/12-12-12-12/14-14-14-14\12-12\11-11\9--9--11-|
|-x-----x--x--x-----x--x--x-----x-----x-----x--x--| x2
|-9-/10-10-10-10/12-12-12-12\10-10\9--9-\7--7--9--|
|-------------------------------------------------|
|-------------------------------------------------|

Verse 1:

Guitar 1: w/flanger
|-0------------|
|-0------------|
|-9------------| x4
|-7------------|
|-0------------|
|-7------------|

Guitar 2: sustain
|--------------|
|-5------------|
|--------------|
|--------------|
|--------------|
|--------------|
Nh.

Pre-chorus 1:

Guitar 1:
|--------------------------------|
|--------------------------------|
|--------------------------------| x3
|-------------0------------------|
|----0---7---------2-------------|
|-7----7----7----0---5-2/5-0-4/5-|

|--------------------------------|
|------------------------------2-|
|------------------------------0-|
|-------------0----------------0-|
|----0---7-----------------------|
|-7----7----7--------------------|

Chorus 1:

Guitar 1:
|-------------------------------------------------|
|-------------------------------------------------|
|-------------12----------------------------12----|
|-12----12-------------14----14-------12-12-------|
|-10----10----------10----------10-10-10----------|
|-10-------10-------10----------10----10----------|

Guitar 2:
|-------------------------------------------------|
|-11/12-12-12-11/12-12-11---/12-12-12-11/12-12-12-|
|-x-----x--x--x-----x--x-----x--x--x--x-----x--x--|
|-9-/10-10-10-9-/10-10-9----/10-10-10-9-/10-10-10-|
|-------------------------------------------------|
|-------------------------------------------------|

Guitar 1:
|----------------------------------------------|
|----------------------------------------------|
|----------------------------------------------|
|-15----15----15-15---/17----17-17-17--------\-|
|-13----13----13-13-13/15----15-15-15--------\-|
|-12----12----12----12/14----14-14-14--------\-|

Guitar 2:
|----------------------------------------------|
|-14\12----12-14\12-12-14-------12-12-12-12-12-|
|-x--------x--x-----x--x--------x--x--x--x--x--|
|-12\10----10-12\10-10-12-------10-10-10-10-10-|
|----------------------------------------------|
|----------------------------------------------|

Guitar 1:
|-------------------------------------------------|
|-------------------------------------------------|
|-------------12----------------------------12----|
|-12----12-------------14----14-------12-12-------|
|-10----10----------10----------10-10-10----------|
|-10-------10-------10----------10----10----------|

Guitar 2:
|-------------------------------------------------|
|-11/12-12-12-11/12-12-11---/12-12-12-11/12-12-12-|
|-x-----x--x--x-----x--x-----x--x--x--x-----x--x--|
|-9-/10-10-10-9-/10-10-9----/10-10-10-9-/10-10-10-|
|-------------------------------------------------|
|-------------------------------------------------|

Guitar 1:
|----------------------------------------------|
|----------------------------------------------|
|----------------------------------------------|
|-8-----8-----8--8--8--12---12--12-12----12----|
|-8-----8-----8--8--8--10---10-----10----10----|
|-8-----8-----8--8--8--9----9------9-----9-----|

Guitar 2:
|----------------------------------------------|
|-14\12----12-14\12-12-14-------12-16\14-12-11-|
|-x--------x--x-----x--x--------x--x-----x--x--|
|-12\10----10-12\10-10-12-------10-14\12-10-9--|
|----------------------------------------------|
|----------------------------------------------|

Interlude:

Guitar 1: w/ flanger
|--------------|
|-12-----------|
|-x------------|
|-10-----------|
|--------------|
|--------------|

Verse 2: same as verse 1

Pre-chorus 2: same as pre-chorus 1

Chorus 2: same as chorus 1

Bridge:
|----------------------------------|
|----------------------------------|
|---------12-----------------------| x3
|---7-----10------5----------------|
|---7-----10------5--------5-5-4/5-|
|-7-----7-10---10-5----5-0-5-5-4/5-|

|----------------------------------|
|----------------------------------|
|---------12-----------------------|
|---7-----10------5----------------|
|---7-----10------5----------------|
|-7-----7-10---10-5--------------9-|

Outro: same as verse 1



4  - It's been awhile

Tuning:

- Electric gtrs. 1, 2, 3 Ab Db Ab Db Gb Bb
- Acoustic gtr. 2 Eb Ab Db Gb Bb Eb

Intro:

Guitar 1:
|----------------------------------------------------------------------|
|-------------------------0-----------------0---0--------------7p5-----|
|----12----14-p-12-----9-------10-p-9-----4---4----4-------5-------5---| x2
|------------------0---10-------------10\-5----------5---7---7-------7-|
|-14----14-----------0-10---10------------5------------0---------------|
|-0-----0--------------------------------------------------------------|

Guitar 2: starts on 2nd time of gtr. 1
|---------------------------------------------------------------|
|-------3---------------3--------------3--------------3-3-------|
|---2-------2-------0-------0---0----------0---0----------0---0-| x1
|-----2-------2-0-------------2---0--0-------0---0--0-------2---|
|-0---------------3---3-----------x-----------------------------|
|---------------------------------3-----------------------------|

Verse 1:

Guitar 1: same as intro x4

Guitar 2: same as intro x4

Guitar 3:
|------------------------------|
|-14----12\--------12----12----|
|-14----12\----14-----------14-| x4
|------------------------------|
|------------------------------|
|------------------------------|

Guitar 4:
|-5-7-8---7-8---7-8---7-8-7-7-8-7--5--5-7-8---7-8---7-8---7-8-7-7-8-7-|
|---------------------------------------------------------------------|
|---------------------------------------------------------------------|
|---------------------------------------------------------------------|
|---------------------------------------------------------------------|
|---------------------------------------------------------------------|

Chorus 1:

Guitar 1:

  Abm                 B              Gb             Db7
|-----------------------------------------------------------------|
|-----------------------------------------------------------------|
|-----------------------------------------------------------------| x4
|------------------------------------5------5---5-5-0-0---12--12\-|
|-14----14-14---14\---5------5---5---5------5---5-5-0-0---12--12\-|
|-12----12-12---12\---3------3---3--------------------------------|

Guitar 3:
|-----------------------------------------------------------------|
|-9--------9/12-----7\5--------------7------7---7---5-5\4-4/5-5-5-|
|-x--------x--------x----------------x------x---x---x-x---x---x-x-| x4
|-7--------7/10-----5\3--------------5------5---5---3-3\2-2/3-3-3-|
|-----------------------------------------------------------------|
|-----------------------------------------------------------------|

Verse 2: same as verse 1

Chorus 2: same as chorus 1

Bridge:

Guitar 3:
|--------------------------------------------------------------|
|-12-----9/12-12\9-7------7/9-9\7-5------------2---------------|
|-x------x----x----x------x---x---x------------x---------------| x4
|-10-----7/10-10\7-5------5/7-7\5-3------------0---------------|
|--------------------------------------------------------------|
|--------------------------------------------------------------|

Guitar 1:

  Gb               Db7            Abm
|------------------------------------------------0-----0-------|
|--------------------------------------------------5-----5-----|
|--------7----------------2--------------------------7-----5-4-| x3
|-5----5-5---------0------0-------7----------------------------|
|-5----5-5---------0----0-0-------7----------------------------|
|------------------5--------------0----------------------------|

|--------------------------------------------------------------|
|--------------------------------------------------------------|
|-5-------------------------------7----------------------------| x1
|-5----------------5--------------7----------------------------|
|-5----------------7--------------7----------------------------|
|------------------5-------------------------------------------|

Verse 3: same as verse 1

Chorus 3: same as chorus 1

Outro:

Guitar 1 & 2: same as verse 1 x1

Guitar 1:
|-------------------------------------------|
|-------------------------0---------------0-|
|----12----14-p-12-----9-------10-p-9-----4-|
|------------------0---10-------------10\-5-|
|-14----14-----------0-10---10------------5-|
|-0-----0-----------------------------------|

Guitar 2:
|-----------------------------------|
|-------3---------------3-----------|
|---2-------2-------0-------0---0-0-|
|-----2-------2-0-------------2---0-|
|-0---------------3---3-----------x-|
|---------------------------------3-|


Acoustic chords:

      Eb Ab Db Bb Gb Eb

Abm - x  0  2  2  1  0
B   - x  3  2  0  1  0
Gb  - 3  2  0  0  3  3
Db7 - x  x  0  2  1  2



5  - Change

Tuning: Ab Db Ab Db Gb Bb


Intro:
|--------------------------------------------------|
|--------------------------------------------------|
|--------------------------------------------------| x2
|-12-12-12-12-14-10-------12-12-12-12-14-10---0--3-|
|-12-12-12-12-12-10-------12-12-12-12-12-10---0--3-|
|-12-12-12-12-12-10-------12-12-12-12-12-10--------|

Verse 1: x4
|-------------------------------------------|
|----10-------------------------------------|
|-12----0-14---14------10-10---12---12------|
|-12------10------10---7-----0-10------10---|
|-12-----------------0-7-------10---------0-|
|-------------------------------------------|

|-------------------------------------------|
|----10--------------------------0----0-----|
|-12----0-14---14------10--------0------0---|
|-12------10------10---7---------3----------|
|-12-----------------0-7-------0-3--------0-|
|-------------------------------------------|

Last time play this:
|-------------------------------------------|
|----10-------------------------------------|
|-12----0-14---14------10-10---12---12------|
|-12------10------10---7-----0-10------10---|
|-12-----------------0-7-------10---------0-|
|-------------------------------------------|

|--------------------------------------|
|----10--------------------------------|
|-12----0-14---14----------------------|
|-12------10------10---7-7-7-7-7-7-7-7-|
|-12-----------------0-7-7-7-7-7-7-7-7-|
|--------------------------------------|

Chorus 1:
|-----------------------------------------------|
|-----------------------------------------------|
|-------------------------------3-------3-----3-| x4
|-10\---5---5-5-5-5-5-5-5-------3-------3-----3-|
|-10\---5---5-5-5-5-5-5-5---7---3---7---3---7-3-|
|-10\-----------------------5-------5-------5---|

Verse 2: same as verse 1

Chorus 2: same as chorus 1

Interlude 1: same as intro

Bridge:
|---------------------------------|
|-----------------------------0---|
|---------------0-0-----------0---| x4
|-0-h-2---0---0-0-0-h-2-0---0-3---|
|-0-h-2---0---0-0-0-h-2-0-5-0-3---|
|-------------------------3-------|

Interlude 2: same as intro

Verse 3:
|-------------------------------------------|
|----10-------------------------------------|
|-12----0-14---14------10-10---12---12------|
|-12------10------10---7-----0-10------10---|
|-12-----------------0-7-------10---------0-|
|-------------------------------------------|

|-------------------------------------------|
|----10--------------------------0----0-----|
|-12----0-14---14------10--------0------0---|
|-12------10------10---7---------3----------|
|-12-----------------0-7-------0-3--------0-|
|-------------------------------------------|

|-------------------------------------------|
|----10-------------------------------------|
|-12----0-14---14------10-10---12---12------|
|-12------10------10---7-----0-10------10---|
|-12-----------------0-7-------10---------0-|
|-------------------------------------------|

|--------------------------------------|
|----10--------------------------------|
|-12----0-14---14----------------------|
|-12------10------10---7-7-7-7-7-7-7-7-|
|-12-----------------0-7-7-7-7-7-7-7-7-|
|--------------------------------------|

Chorus 3: same as chorus 1



6  - Can't belive

Tuning: Bb  Eb Ab Db Gb Bb


Intro:
|-------------------------------------|
|-------------------------------------|
|-------------------------------------| x4
|-10--x-x-x-6-8-8--/10--10--13--13-13-|
|-8---x-x-x-8-8-8--/11--11--11--11-11-|
|-6---x-x-x-6-6-6--/9---9---9---9--9--|

-clean w/flanger
|---------------------------------------------------------------------|
|-12------8h10------12-------13----15\--12------8h10------12-------13-|
|----10--------10------13------------------10--------10------13-------|
|-------8---------8-------11----11------------8---------8-------11----|
|---------------------------------------------------------------------|
|---------------------------------------------------------------------|

Verse 1:
|-------------------------------------|
|-------------------------------------|
|-------------------------------------| x4
|-10--x-x-x-6-8-8--/10--10--13--13-13-|
|-8---x-x-x-8-8-8--/11--11--11--11-11-|
|-6---x-x-x-6-6-6--/9---9---9---9--9--|

Chorus 1:
|------------------------------------------------------------|
|------------------------------------------------------------|
|------------------------------------------------------------|
|----------------6--6-6-6-6--6-----------------6--6-6-6-6--6-|
|-3--3-3-3-3--3--4--4-4-4-4--4--3--3-3-3-3--3--4--4-4-4-4--4-|
|-1--1-1-1-1--1--4--4-4-4-4--4--1--1-1-1-1--1--4--4-4-4-4--4-|

|------------------------------------------------------------|
|------------------------------------------------------------|
|------------------------------------------------------------|
|----------------6--6-6-6-6--6-----------------6--6-5-5-5--5-|
|-3--3-3-3-3--3--4--4-4-4-4--4--3--3-3-3-3--3--4--4-3-3-3--3-|
|-1--1-1-1-1--1--4--4-4-4-4--4--1--1-1-1-1--1--4--4-3-3-3--3-|

Port-chorus 1: w/tremolo picking
|-13--/16----13--16---13---|
|--------------------------|
|-10--/13----10--13---10---| x2
|--------------------------|
|--------------------------|
|--------------------------|

Interlude 1: clean w/flanger
|---------------------------------------------------------------------|
|-12------8h10------12-------13----15\--12------8h10------12-------13-|
|----10--------10------13------------------10--------10------13-------|
|-------8---------8-------11----11------------8---------8-------11----|
|---------------------------------------------------------------------|
|---------------------------------------------------------------------|

Verse 2: same as verse 1

Chorus 2: same as chorus 1

Interlude 2: same as interlude 1 x2

Verse 3: same as verse 1

Chorus 3:
|------------------------------------------------------------|
|------------------------------------------------------------|
|------------------------------------------------------------|
|----------------6--6-6-6-6--6-----------------6--6-6-6-6--6-|
|-3--3-3-3-3--3--4--4-4-4-4--4--3--3-3-3-3--3--4--4-4-4-4--4-|
|-1--1-1-1-1--1--4--4-4-4-4--4--1--1-1-1-1--1--4--4-4-4-4--4-|

|------------------------------------------------------------|
|------------------------------------------------------------|
|------------------------------------------------------------|
|----------------6--6-6-6-6--6-----------------6--6-6-6-6--6-|
|-3--3-3-3-3--3--4--4-4-4-4--4--3--3-3-3-3--3--4--4-4-4-4--4-|
|-1--1-1-1-1--1--4--4-4-4-4--4--1--1-1-1-1--1--4--4-4-4-4--4-|

|------------------------------------------------------------|
|------------------------------------------------------------|
|------------------------------------------------------------|
|----------------6--6-6-6-6--6-----------------6--6-6-6-6--6-|
|-3--3-3-3-3--3--4--4-4-4-4--4--3--3-3-3-3--3--4--4-4-4-4--4-|
|-1--1-1-1-1--1--4--4-4-4-4--4--1--1-1-1-1--1--4--4-4-4-4--4-|

|------------------------------------------------------------|
|------------------------------------------------------------|
|------------------------------------------------------------|
|----------------6--6-6-6-6--6-----------------6--6-5-5------|
|-3--3-3-3-3--3--4--4-4-4-4--4--3--3-3-3-3--3--4--4-3-3------|
|-1--1-1-1-1--1--4--4-4-4-4--4--1--1-1-1-1--1--4--4-3-3------|



7  - Epiphany

Tuning: Db Ab Db Gb Ab Db


         Db Ab Dd Gb Ab Db

D5     - 0  0  0  2  0  0

Gsus2  - 5  x  0  2  0  0

Bsus2  - 9  9  11 x  x  x

Gsus2* - 5  5  0  0  0  0



Intro:      D5   Gsus2   D5   Gsus2


Verse 1:

         D5                          Gsus2
your words to me just a whisper your faces so unclear

  D5                        Gsus2
i try to pay attention your words just disappear


Chorus 1:

       Bsus2                                 Gsus2*
huh huh 'cause it's always raining in my head

      Bsus2                                     Gsus2*
huh huh forget all the things i should have said


Interlude:  D5     Gsus2


Verse 2:

         D5                            Gsus2
so i speak to you in riddles 'cause my words get in my way

  D5                                   Gsus2
i smoke the whole thing to my head and feel it wash away

         D5                            Gsus2
'cause i can't take anymore of this i want to come apart,

   D5                          Gsus2
or dig myself a little hole inside your precious heart


Chorus 2:

      Bsus2                                  Gsus2*
huh huh 'cause it's always raining in my head

      Bsus2                                     Gsus2*
huh huh forget all the things i should have said


Verse 3:

D5                       Gsus2
i am nothing more than a little boy inside

     D5                            Gsus2
that cries out for attention yet i always try to hide

         D5                                 Gsus2
'cause i talk to you like children though I don't know how I feel

      D5                                  Gsus2
but I know i'll do the right thing if the right thing is revealed.


Chorus 3:

      Bsus2                                  Gsus2*
huh huh 'cause it's always raining in my head

      Bsus2                                     Gsus
huh huh forget all the things i should have said

Outro:  D5 (just one strum)



8  - Suffer

Tuning: Ab Db Ab Db Gb Bb


Intro:
|-----------------------------|
|---------------0---------0---|
|-----------------0-----------| x5
|-0---8-----7-------0---------|
|-0---8---0-8---------5-------|
|---------------------3-------|

|-----------------------------|
|-----------------------------|
|-----------------------------| x1
|-0---8-----7---7-7-7-7-7-7-7-|
|-0---8---0-8---8-8-8-8-8-8-8-|
|-----------------------------|

Verse 1:
|---------------------------------------------------------------------|
|-0-0-0-0-0-0-0-0---0-0-0-0-0-0-0---0-0-0-0-0-0-0---0-0-0-------------|
|-0-0-0-0-0-0-0-0---0-0-0-0-0-0-0---0-0-0-0-0-0-0---0-0-0-10-10-10-10-|
|-7-8-8-8-8-8-8-7---8-8-8-8-8-8-7---8-8-8-8-8-8-7---8-8-8-8--8--8--8--|
|-8-8-8-8-8-8-8-8---8-8-8-8-8-8-8---8-8-8-8-8-8-8---8-8-8-8--8--8--8--|
|---------------------------------------------------------------------|

|---------------------------------------------------------------------|
|-0-0-0-0-0-0-0-0---0-0-0-0-0-0-0---0-0-0-0-0-0-0---0-0-0-------------|
|-0-0-0-0-0-0-0-0---0-0-0-0-0-0-0---0-0-0-0-0-0-0---0-0-0-12-12-12-12-|
|-7-8-8-8-8-8-8-7---8-8-8-8-8-8-7---8-8-8-8-8-8-7---8-8-8-10-10-10-10-|
|-8-8-8-8-8-8-8-8---8-8-8-8-8-8-8---8-8-8-8-8-8-8---8-8-8-10-10-10-10-|
|---------------------------------------------------------------------|

|-----------------------------|
|---------------0---------0---|
|-----------------0-----------| x2
|-0---8-----7-------0---------|
|-0---8---0-8---------5-------|
|---------------------3-------|

Verse 2: same as verse 1

Chorus 1:
|-----------------------------------------------------------------|
|----------------------------------/8---8---8-8-8-----------------|
|---------10-----7-----8---8p7-----/8---8---8-8-8-8---8---8-8-8-8-| x4
|-8---8------------------------8---/6---6---6-6-6-5---5---5-5-5-5-|
|-8--------------------------------/6---6---6-6-6-5---5---5-5-5-5-|
|-8-----8------8-----8--------------------------------------------|

Verse 3: same as verse 1

Verse 4: same as verse 1

Chorus 2: same as chorus 1

Interlude 1:
|--------------------------------|
|--------------------------------|
|--------------------------------| x4
|-3-------6-----8-------8-8------|
|-5---x-x-6---x-8-------8-8------|
|-3---x-x-3---x-6---6-6-5-5--5---|

Interlude 2: clean
|-----------------------------------------------------------------|
|-----------------------------------8-----------------------------|
|---------10-----7-----8---8p7------8-----------------------------|
|------------------------------8/---5-----------------------------|
|-----------------------------------5-------------5---------------|
|-8------------8-----8--------------------------------------------|

Chorus 3: same as chorus 1

Outro: clean
|-----------------------------------------------------------------|
|-----------------------------------8-----------------------------|
|---------10-----7-----8---8p7------8-----------------------------|
|------------------------------8----6-----------------------------|
|-----------------------------------6-----------------------------|
|-8------------8-----8--------------------------------------------|



9  - Warm safe place

Tuning: Ab Eb Bb Db Gb Bb


Intro: clean w/chorus, then distorted
|-------------------------------|
|-------------------------------|
|-------------------------------| x3
|-10---10--10-8-----------------|
|-0----0---0--0---0-0---0-0-0-0-|
|-------------------------------|

|-------------------------------|
|-------------------------------|
|-------------------------------| x1
|-10---10--10-8-----------------|
|-0----0---0--0---0-3h6-6p3-3-0-|
|-----------------0-3h6-6p3-3-0-|

|-------------------------------|
|-------------------------------|
|-------------------------------| x3
|-5/---10--10-8-----------------|
|-5/---0---0--0---0-3h6-6p3-3-0-|
|-5/--------------0-3h6-6p3-3-0-|

|-------------0-----------------|
|-------------0-----------------|
|-------------9-----------------| x1
|-5----10--10-8-----------------|
|-5----0---0--0-----------------|
|-5-----------0-----------------|

Verse 1: clean w/chorus, then distorted
|-------------------------------|
|-------------------------------|
|-------------------------------| x3
|-10---10--10-8-----------------|
|-0----0---0--0---0-0---0-0-0-0-|
|-------------------------------|

|-------------------------------|
|-------------------------------|
|-------------------------------| x1
|-10---10--10-8-----------------|
|-0----0---0--0---0-3h6-6p3-3-0-|
|-----------------0-3h6-6p3-3-0-|

|---------------------------------------------------------------|
|---------------------------------------------------------------|
|---------------------------------------------------------------|
|-5/---10--10-8---0-5-------5---5/---10--10-8---0-0-0-0-0-0-0-0-|
|-5/---0---0--0---0---0-0-0---0-5/---0---0--0---0-0-0-0-0-0-0-0-|
|-5/----------------------------5/------------------------------|
Pm                                                . . . . . . .
Nh                  .       .

|---------------------------------------------------------------|
|---------------------------------------------------------------|
|---------------------------------------------------------------|
|-5/---10--10-8---0-5-------5---5/---10--10-8-------------------|
|-5/---0---0--0---0---0-0-0---0-5/---0---0--0---0-0-0-0-0-0-0-0-|
|-5/----------------------------5/------------------------------|
Pm                                                . . . . . . .
Nh                  .       .

Chorus 1:

Guitar 1:
|------------------------------------------------------------------------|
|------------------------------------------------------------------------|
|------------------------------------------------------------------------| x3
|-10---10--9--10----10----9h10-10----13---13--12-13----13-13-13h15-15-12-|
|-10---10--10-10----10----10---10-10-12---12--12-12----12-12-12----12-12-|
|-10---10--10-10----10-10-10---10-10-12---12--12-12----12----12----12-12-|

Guitar 2:
|-7----7---7--5-----5--0--8-8--7--0--12---12--15/17----17-17-15-15-12-12-|
|------------------------------------------------------------------------|
|------------------------------------------------------------------------| x3
|------------------------------------------------------------------------|
|------------------------------------------------------------------------|
|------------------------------------------------------------------------|

then:

Guitar 1:
|-----------------------------------------------------|
|-----------------------------------------------------|
|-----------------------------------------------------| x1
|-10---10--9--10----10----9h10-10----13---13--12-13---|
|-10---10--10-10----10----10---10-10-12---12--12-12---|
|-10---10--10-10----10-10-10---10-10-12---12--12-12---|

Guitar 2:
|-7----7---7--5-----5--0--8-8--7--0--12---------------|
|-----------------------------------------11--11-9----|
|-----------------------------------------------------| x1
|-----------------------------------------------------|
|-----------------------------------------------------|
|-----------------------------------------------------|

then:

Guitar 1:
|------------------|
|------------------|
|------------------| x1
|-13---13--12h13---|
|-12---12--12------|
|------------------|

Guitar 2:
|------------------|
|-12-------11h12---|
|------------------| x1
|------------------|
|------------------|
|------------------|

Verse 2:same as vese 1

Chorus 2:

Guitar 1:
|------------------------------------------------------------------------|
|------------------------------------------------------------------------|
|------------------------------------------------------------------------| x3
|-10---10--9--10----10----9h10-10----13---13--12-13----13-13-13h15-15-12-|
|-10---10--10-10----10----10---10-10-12---12--12-12----12-12-12----12-12-|
|-10---10--10-10----10-10-10---10-10-12---12--12-12----12----12----12-12-|

Guitar 2:
|-7----7---7--5-----5--0--8-8--7--0--12---12--15/17----17-17-15-15-12-12-|
|------------------------------------------------------------------------|
|------------------------------------------------------------------------| x3
|------------------------------------------------------------------------|
|------------------------------------------------------------------------|
|------------------------------------------------------------------------|

then:

Guitar 1:
|-----------------------------------------------------|
|-----------------------------------------------------|
|-----------------------------------------------------| x1
|-10---10--9--10----10----9h10-10----13---13--12-13---|
|-10---10--10-10----10----10---10-10-12---12--12-12---|
|-10---10--10-10----10-10-10---10-10-12---12--12-12---|

Guitar 2:
|-7----7---7--5-----5--0--8-8--7--0--12---------------|
|-----------------------------------------11--11-9----|
|-----------------------------------------------------| x1
|-----------------------------------------------------|
|-----------------------------------------------------|
|-----------------------------------------------------|

then:

Guitar 1:
|-------------------------|
|-------------------------|
|-------------------------|
|-13---13--12h13----------|
|-12---12--12-------------|
|-12---12--12-------------|

Guitar 2:
|-------------------------|
|-------------------------|
|-------------------------|
|-------------------13\---|
|-------------------12\---|
|-------------------------|

Bridge:
|-----------------------------------------------------------------|
|-----------------------------------------------------------------|
|-----------------------------------------------------------------| x 3
|-8--8--8-----8--8---8-8-8-----------5-5-5-5-3---6-5--------------|
|-8--8--8--x--8--8---8-8-8-----------5-5-5-5-3---6-5--------------|
|-8--8--8--x--8--8---8-8-8-17---17---5-5-5-5-3---6-5------3---3---|
Nh                         ..   ..                        .   .

|-----------------------------------------------------------------|
|-----------------------------------------------------------------|
|-----------------------------------------------------------------| x 1
|-8--8--8-----8--8---8-8-8-----------5-5-5-5-3---6-5--------------|
|-8--8--8--x--8--8---8-8-8-----------5-5-5-5-3---6-5--------------|
|-8--8--8--x--8--8---8-8-8-17---17---5-5-5-5-3---6-5--------------|
Nh                         ..   ..

Verse 3: clean w/chorus, then distorted
|-------------------------------|
|-------------------------------|
|-------------------------------| x3
|-10---10--10-8-----------------|
|-0----0---0--0---0-0---0-0-0-0-|
|-------------------------------|

|-------------0-----------------|
|-------------0-----------------|
|-------------9-----------------| x1
|-10---10--10-8-----------------|
|-0----0---0--0-----------------|
|-------------0-----------------|

Chorus 3: same as chorus 1

Outro:

Guitar 1:                        x3                   x1
|-------------------------0-------|--------------------|
|-0-------------------------0-----|--------------------|
|-5----5---4h5--------5-------4---|-5----5---4h5-------|
|-5----5---5------------5-------5-|-5----5---5---------|
|-0----0---0--------0-------------|-0----0---0---------|
|---------------------------------|--------------------|

Guitar 2:                        x3                   x1
|----------------------12---------|--------------------|
|-11---11--9h11--12-11----12-11-9-|-11---11--9h11------|
|---------------------------------|--------------------|
|---------------------------------|--------------------|
|---------------------------------|--------------------|
|---------------------------------|--------------------|



10 - For you

Tuning: Ab Eb Bb Db Gb bb

This is the right tuning.
Mike use this for a lot of song in Break the cycle and live.

Intro:
|------------------------------------------------------------------|
|------------------------------------------------------------------|
|------------------------------------------------------------------| x2
|------------------------------------------------------------------|
|-7h9-9-9-7h9-9-7h9-9-9-9-7h9-9-9-7h9-9-9-7h9-9-7h9-9-9-9-10p9-9-9-|
|-7h9-9-9-7h9-9-7h9-9-9-9-7h9-9-9-7h9-9-9-7h9-9-7h9-9-9-9-10p9-9-9-|
Pm    . .     .     . . .     . .     . .     .     . . .      . .

Verse 1: same intro x4

Chorus 1:

Guitar 1: x2
|-----------------------------------------------------|
|---------------------11--11--------------------------|
|---------------------x---x---------------------------|
|-9--9--9--9--10--10--10--10--5--5--5--5--7--7--7--7--|
|-9--9--9--9--10--10--10--10--5--5--5--5--7--7--7--7--|
|-9--9--9--9--9---9---9---9---------------7--7--7--7--|

|-----------------------------------------------------|
|---------------------11------------------------------|
|---------------------x-------------------------------|
|-9--9--9--9--10--10--10--10--5--5--5--5--5--5--5--5--|
|-9--9--9--9--10--10--10--10--5--5--5--5--4--4--4--4--|
|-9--9--9--9--9---9---9---9---5--5--5--5--4--4--4--4--|

Guitar 2: x4
|----------------------------/10-10-10-9-----9--------|
|-/11-11-11-11p9--9---9---9\--------------------9--9--|
|-----------------------------------------------------|
|-----------------------------------------------------|
|-----------------------------------------------------|
|-----------------------------------------------------|

Verse 2: same verse 1

Chorus 2: same chorus 1

Bridge part 1:

Guitar 1: clean w/flanger
|----------------------|
|----------------------|
|----------------------| x10
|----------------------|
|-2-2---2-x-2--2-x-2-2-|
|----------------------|
Pm. .   . . .  . . . .

Guitar 2: starts on 7th time of guitar 1
|----------------------|
|----------------------|
|----------------------| x2
|-2--------------------|
|-2--------------------|
|----------------------|

|----------------------|
|----------------------|
|----------------------| x2
|-2-2------------------|
|-2-2------------------|
|----------------------|

Bridge part 2:
|-------------------|
|-------------------|
|-------------------| x3
|-2-0-2p0-2p0-0-2-0-|
|-2-0-2p0-2p0-0-2-0-|
|-------------------|

|-------------------|
|-------------------|
|-------------------| x1
|-2-0-2p0-2p0-0-0-0-|
|-2-0-2p0-2p0-0-0-0-|
|-------------------|

Chorus 3: same chorus 1

Outro:
|------------------------------------------------------------------|
|------------------------------------------------------------------|
|------------------------------------------------------------------|
|------------------------------------------------------------------|
|-7h9-9-9-7h9-9-7h9-9-9-9-7h9-9-9-7h9-9-9-7h9-9-7h9-9-9-9-10p9-9-9-|
|-7h9-9-9-7h9-9-7h9-9-9-9-7h9-9-9-7h9-9-9-7h9-9-7h9-9-9-9-10p9-9-9-|
Pm    . .     .     . . .     . .     . .     .     . . .      . .

|------------------------------------------------------------------|
|------------------------------------------------------------------|
|------------------------------------------------------------------|
|------------------------------------------------------------------|
|-7h9-9-9-7h9-9-7h9-9-9-9-7h9-9-9-7h9-9-9-7h9-9-7------------------|
|-7h9-9-9-7h9-9-7h9-9-9-9-7h9-9-9-7h9-9-9-7h9-9-7------------------|
Pm    . .     .     . . .     . .     . .     .



11 - Outside

Tuning:

- electric gtrs. 1 & 3 Ab Eb Bb Db Gb Bb
- acoustic gtr. 2 Eb Ab Db Gb Eb


Intro: guitar 2 x2 guitar 1 starts on 2nd of guitar 2

Guitar 1:
  Eb5                  Db5                        Gb                   Absus2
|-------------13----------------------12-------------------10----------12-|
|-16----16-------16----14-------14-------14----14----12----------12-------|
|----14----14-------14-------14----14-------14----12----12----------12----|
|-------------------------------------------------------------------------|
|-------------------------------------------------------------------------|
|-------------------------------------------------------------------------|

|------------------------|
|----12------12----------|
|-------9h10----10-------|
|------------------------|
|------------------------|
|------------------------|

Verse 1:

Guitar 1: x3 then x1 same as intro
|-------------13----------------------12-------------------10----------12-|
|-16----16-------16----14-------14-------14----14----12----------12-------|
|----14----14-------14-------14----14-------14----12----12----------12----|
|-------------------------------------------------------------------------|
|-------------------------------------------------------------------------|
|-------------------------------------------------------------------------|

|------------------10----|
|----12------12-------12-|
|-------9h10----10-------|
|------------------------|
|------------------------|
|------------------------|

Guitar 2: same as intro x4


Chorus 1:

Guitar 1: x2
  Eb                     Gb*
|---------------------------------------------|
|---------------------------------------------|
|------------------------------12----9----10\-|
|-0-----0--0-0-----0-0-0-10-------------------|
|-0-----0--0-0-----0-0-0-10-------------------|
|-7-----7--7-7-----7-7-7-10-------10---10-----|

  Db5                     Absus2*
|---------------------------------------------|
|---------------------------------------------|
|----------------------------------10---------|
|-5-----5------------5/--12---12------12-10-8-|
|-5-----5------------5/--12-0----0------------|
|-5-----5------------5/--12-------------------|


Interlude:

Guitar 1:
  Eb              Db            Gb                  Absus2
|--------------------------------------------------------------------------|
|--------------------------------------------------------------------------|
|-------------2-2---------------------12----9----10------------------------|
|-12\---0-----0-0-5--5-----5-5/-10------------------5----------------------|
|-12\---0-----0-0-5--5-----5-5/-10------------------5----------------------|
|-----------------5--5-----5-5/-10-------10---10---------------------------|

Verse 2: same as verse 1

Chorus 2: same as chorus 1

Bridge: x4

Guitar 1:
  Eb              Db            Gb*                 Absus2
|--------------------------------------------------------------------------|
|----------------------------0---------------------------------------------|
|-------------2-2------------0--------12----9----10-------------10---------|
|-12\---0-----0-0-5--5-----5----10------------------12-----12------12-10-8-|
|-12\---0-----0-0-5--5-----5----10------------------12---0----0------------|
|-----------------5--5-----5----10-------10---10----12---------------------|

Guitar 3:
|-9---9---9-7-9-10---\-------------------------------0---0-0-0-0-0-0-0-----|
|-x---x---x-x-x-x------7-7-7-11-9-7-7-9---7-7-11-9-7-9-----9-9-9-9-9-9-----|
|-6---6---6-4-6-7----\-x-x-x-x--x-x-x-x---x-x-x--x-x-x-----x-x-x-x-x-x-----|
|----------------------3-3-3-7--5-3-3-5---3-3-7--5-3-5-----5-5-5-5-5-5-----|
|--------------------------------------------------------------------------|
|--------------------------------------------------------------------------|

Verse 3: same as intro:

Outro chorus: only guitar 2 same as chorus 1 x2


Acoustic chords
          Eb Ab Db Bb Gb Eb
Eb5     - 0  7  9  9  0  x
Db5     - x  5  7  7  0  0
Gb      - 3  5  0  0  0  x
Absus2  - 5  7  7  0  0  x
Eb      - 0  2  2  1  0  0
Gb*     - 3  2  0  0  3  3
Db      - x  x  0  2  3  2
Absus2* - x  0  2  2  0  0



12 - Waste

Tuning: Ab Db Db Gb Bb


Intro: 

Guitar 1: clean
|-------------------------------------------------------------------|
|-------------------------------------------------------------------|
|-------------7------6-------------------------6--------------------|
|----4h5p4----------------------------4h5p4-----------7-------------|
|-4--------4-------4---------------4--------4-------4---------------|
|-------------------------------------------------------------------|

Verse 1:

Guitar 1: clean
|-------------------------------------------------------------------|
|-------------------------------------------------------------------|
|-------------7------6-------------------------6--------------------| x2
|----4h5p4----------------------------4h5p4-----------7-------------|
|-4--------4-------4---------------4--------4-------4---------------|
|-------------------------------------------------------------------|

Guitar 2: clean
|------9------10------------------------9------10-----12------------|
|----9---9---------9------------------9---9---------9---------------|
|-11-------11--------9-------------11-------11----------------------| x2
|-------------------------------------------------------------------|
|-------------------------------------------------------------------|
|-------------------------------------------------------------------|

then:

Guitar 1:
|--------------------------------------------------------------------------|
|--------------------------------------------------------------------------|
|-----------------7-------7----6-----------------------7-------7----7------| x2
|-4--4h5p4-4--5---4-----4----4---4-7---4--4h5p4-4--5---4-----4----4----x-x-|
|-4--------4--4---4-----4--------------4--------4--4---4-----4---------x-x-|
|--------------------------------------------------------------------------|

Guitar 2:
|------9------9---10------10---9------------9------9---10------10---12-----|
|----9---9--------------9----9---9--------9---9--------------9----9--------|
|-11-------11----------------------9---11-------11-------------------------| x2
|--------------------------------------------------------------------------|
|--------------------------------------------------------------------------|
|--------------------------------------------------------------------------|

Chorus 1:

Guitar 1:
|-------------------------|
|-------------------------|
|-------------------------| x4
|-7p6-6-7-7p6-x-9---------|
|-7p6-6-7-7p6-x-9-------x-|
|---------------7-------x-|

Interlude:

Guitar 1: clean
|-------------------------------------------------------------------|
|-------------------------------------------------------------------|
|-------------7------6-------------------------6--------------------|
|----4h5p4----------------------------4h5p4-----------7-------------|
|-4--------4-------4---------------4--------4-------4---------------|
|-------------------------------------------------------------------|

Guitar 2: clean
|------9------10------------------------9------10-----12------------|
|----9---9---------9------------------9---9---------9---------------|
|-11-------11--------9-------------11-------11----------------------|
|-------------------------------------------------------------------|
|-------------------------------------------------------------------|
|-------------------------------------------------------------------|

Verse 2: same as verse 1

Chorus 2: same as chorus 1

Bridge:

Guitar 1: clean x4
|-------------------------------------------------|
|-------------------------------------------------|
|----15----12----------14-------------------------|
|-12-------------12-------------15----------------|
|-12----12----------12-------12----12-10-10-10----|
|-------------------------------------0--0--0-----|

|-------------------------------------------------|
|-------------------------------------------------|
|----15----12----------14----14-14----------------|
|-12-------------12----15----15-15----------17----|
|-12----12----------12-------------------17----17-|
|-------------------------------------15----------|

then:

Guitar 1: x2
|---------------------------------------------------------------------|
|---------------0-----0-----------------------------0-----0-----------|
|---3---0---0---2---0-2-0---------------3---0---0---2---0-2-0---------|
|-0-----------0-3---0-3-0-------------0-----------0-3---0-3-0-5-5-5-5-|
|-0---0-------------------10-10-10-10-0---0-------------------5-5-5-5-|
|-------------------------0--0--0--0--------------------------3-3-3-3-|


Outro:

Guitar 1:
|-------------------------|
|-------------------------|
|-------------------------| x8
|-7p6-6-7-7p6-x-9-------5-|
|-7p6-6-7-7p6-x-9-------5-|
|---------------7---------|

|-------------------------|
|-------------------------|
|-------------------------| x1
|-7p6-6-7-7p6-x-9---------|
|-7p6-6-7-7p6-x-9---------|
|---------------7---------|



13 - Take it

Tuning: Ab Eb Bb Db Gb Bb


Intro:
|--------|
|-5------|
|--------| x1
|-5------|
|--------|
|--------|

|--------------------------------------------------------------|
|--------------------------------------------------------------|
|-----10---10-----10-10-----10-----10---10-----10-9-10/12-12\9-| x4
|-----x----x------x--x------x------x----x------x--x-x-----x----|
|-7-7-8----8--7-7-8--8--7-7-8--7-7-8----8--7-7-8--7-8-/10-10\7-|
|-7-7---------7-7-------7-7----7-7---------7-7-----------------|

Verse 1:
|------------------------------------------|
|------------------------------------------|
|-------10----------10-------10----------9-| x4
|-------x-----------x--------x-----------x-|
|-7-7-7-8-------7-7-8--7-7-7-8-------7-7-7-|
|-7-7-7---------7-7----7-7-7---------7-7---|

|------------------------------------------|
|------------------------------------------|
|-------10---10-----10-------10---10-----9-| 
|-------x----x------x--------x----x------x-|
|-7-7-7-8--7-8--7-7-8--7-7-7-8--7-8--7-7-7-|
|-7-7-7----7----7-7----7-7-7----7----7-7---|

|------------------------------------------|-----------|
|------------------------------------------|-----------|
|-------10---10-----10-------10---10--10-9-|-----------|
|-------x----x------x--------x----x---x--x-|-7---------|
|-7-7-7-8--7-8--7-7-8--7-7-7-8--7-8---8--7-|-7-10-10-5-|
|-7-7-7----7----7-7----7-7-7----7----------|---10-10-5-|

Chorus 1:
|-----------------------------------------|
|-----------------------------------------|
|-----------------------------------------|
|-5----------5-5-5-5-7----------7---------|
|-3----------3-3-3-3-7----------7-10-10-5-|
|-3----------3-5-5-3-7------------10-10-5-|

|---------------------------|
|---------------------------|
|---------------------------|
|-5------------5-5-5-4------|
|-3------------3-3-3-2------|
|-3------------5-5-3-2------|

Verse 2: same as verse 1

Chorus 2:
|-----------------------------------------|
|-----------------------------------------|
|-----------------------------------------|
|-5----------5-5-5-5-7----------7---------|
|-3----------3-3-3-3-7----------7-10-10-5-|
|-3----------3-5-5-3-7------------10-10-5-|

|-----------------------------------------|
|-----------------------------------------|
|-----------------------------------------|
|-5------------5-5-5-4----------7---------|
|-3------------3-3-3-2----------7-10-10-5-|
|-3------------5-5-3-2------------10-10-5-|

|-----------------------------------------|
|-----------------------------------------|
|-----------------------------------------|
|-5----------5-5-5-5-7----------7---------|
|-3----------3-3-3-3-7----------7-10-10-5-|
|-3----------3-5-5-3-7------------10-10-5-|

|---------------------------|
|---------------------------|
|---------------------------|
|-5------------5-5-5-4------|
|-3------------3-3-3-2------|
|-3------------5-5-3-2------|

Bridge:
|---------------|
|---------------|
|-------10------| x4
|---0------12-0-|
|-0---0---------|
|---------------|

|------------------------------------------------|
|------------------------------------------------|
|----------------------------------------------9-|
|-------8------------8------------8------------x-|
|-7-7-7-8-10p0-7-7-7-8-10p0-7-7-7-8-10p0-7-7-7-8-|
|-7-7-7---10p0-7-7-7---10p0-7-7-7---10p0-7-7-7---|

|---------------|
|---------------|
|-------10------| x4
|---0------12-0-|
|-0---0---------|
|---------------|

|------------------------------------------------|
|------------------------------------------------|
|----------------------------------------------9-|
|-------8------------8------------8------------x-|
|-7-7-7-8-10p0-7-7-7-8-10p0-7-7-7-8-10p0-7-7-7-8-|
|-7-7-7---10p0-7-7-7---10p0-7-7-7---10p0-7-7-7---|

|---------------|
|---------------|
|-------10------| x4
|---0------12-0-|
|-0---0---------|
|---------------|

|------------------------------------------------|
|------------------------------------------------|
|----------------------------------------------9-|
|-------8------------8------------8------------x-|
|-7-7-7-8-10p0-7-7-7-8-10p0-7-7-7-8-10p0-7-7-7-8-|
|-7-7-7---10p0-7-7-7---10p0-7-7-7---10p0-7-7-7---|

|---------------|
|---------------|
|-------10------| x4
|---0------12-0-|
|-0---0---------|
|---------------|

|------------------------------------------------|
|------------------------------------------------|
|----------------------------------------------9-| x3
|-------8------------8------------8------------x-|
|-7-7-7-8-10p0-7-7-7-8-10p0-7-7-7-8-10p0-7-7-7-8-|
|-7-7-7---10p0-7-7-7---10p0-7-7-7---10p0-7-7-7---|

|---------------------------------|
|---------------------------------|
|-----------------------5---------|
|-------8------7--------5---------|
|-7-7-7-8-10p0-7-10---5-3---------|
|-7-7-7---10p0---10---5-3---------|

Outro: clean w/phaser
|---------------------------------------------------------------|
|---------------------------------------------------------------|
|---------------------------------------------------------------|
|-5---5---5---7-------------------------7\------------5---------|
|-3---3---3---7-----7--7\--3---0--0--0--7\--10----5---3---------|
|-3---5---3---7--------------2--------------10----5---5---------|

|---------------------------------------------------------------|
|---------------------------------------------------------------|
|---------------------------------------------------------------|
|-5---5---5---4-------------------------7\--------5---5---------|
|-3---3---3---2-------------------------7\-/10----5---3---------|
|-3---5---3---2----------------------------/10----5---5---------|




Tablature Keys:

h - hammer on
p - pull off
b - bend
r - relese bend
~ - sustain
/ - slide up
\ - slide down
v - vibrato
* - trill
x - mute string
pm - palm mute
nh - natural harmonic
ph - pinch harmonic
x\\\ - pick scrape (direction same as slide)





Comments


Popular Staind tabs & chords
Now Bass Tabs
Safe Place 1 Bass Tabs
The Truth Chords
The Way I Am 3 Chords
Throw It All Away Chords
Break 1 Tabs
For You 1 Tabs
Open Your Eyes 3 Tabs
Reply Tabs
So Far Away Standard Tuning 1 Tabs


Song lyrics



↑ Back to top | Tablatures and chords are parodies/interpretations of the original songs. You may use it for private study, scholarship, research or language learning purposes only
© 2014 AZChords.com Contact us | Privacy policy | DMCA | Add/correct tabs | Request tabs | Top 50 tabs