» » »

Staind, Believe Tabs (ver.4)

Artists:  A B C D E F G H I J K L M N O P Q R S T U V W X Y Z # 

Believe Tabs (ver.4)

Staind Tabs
 Rating:
4.4/5 (7 votes)
Believe lessons Tabs too difficult? Try these video lessons and learn fast
1
                "BELIEVE

Put a capo at the first fret to play it (similar) as the original way!

INTRO
-----------------------------------------------------------------------|
------1------------------------------1---------------------------------|
--0------0---------0-------------0------0------------------------------|
3---3-------3-2--3---3-2-3-3---2---2-------2-0--2-2--2-0-2-2-----------|
3------------------------------2---------------------------------------|
1------------------------------0---------------------------------------|

-----------------------------------------------------------------------|
------1---------------1-----------0---1-----------0----1---------------|
--0------0--------0------0---------------0-----------------------------|
3---3-------3-------0-------0-------2-------2-------2------------------|
3-------------------------------0---------------0----------------------|
1---------------3------------------------------------------------------|

VERSE1 (Palm Muting)x2

-----------------------------------------------------------------------|
-----------------------------------------------------------------------|
-----------------------------------------------------------------------|
3-3-3-3-3-3-3-3-3-3-3-3-3-3-3-3-2-2-2-2-2-2-2-2-2-2-2-2-2-2-2-2--------|
3-3-3-3-3-3-3-3-3-3-3-3-3-3-3-3-2-2-2-2-2-2-2-2-2-2-2-2-2-2-2-2--------|
1-1-1-1-1-1-1-1-1-1-1-1-1-1-1-1-0-0-0-0-0-0-0-0-0-0-0-0-0-0-0-0--------|

-----------------------------------------------------------------------|
-----------------------------------------------------------------------|
--------------------------------2-2-2-2-2-2-2-2-2-2-2-2-2-2-2-2--------|
3-3-3-3-3-3-3-3-5-5-5-5-5-5-5-5-2-2-2-2-2-2-2-2-2-2-2-2-2-2-2-2--------|
3-3-3-3-3-3-3-3-5-5-5-5-5-5-5-5-0-0-0-0-0-0-0-0-0-0-0-0-0-0-0-0--------|
1-1-1-1-1-1-1-1-3-3-3-3-3-3-3-3----------------------------------------|

CHORUS x4

1-------0-------0-------3--|
1-------1-------0-------3--|
0-------2-------0-------0--|
3-------2-------2-------0--|
3-------0-------2-------2--|
1---------------0-------3--|

VERSE2 same as VERSE1

CHORUS

INTERLUDE


0-------1-------0-------0--|
1-------1-------1-------0--|
2-------2-------0-------0--|
2-------3-------2-------2--|
0-------3-------3-------2--|
--------1---------------0--|

VERSE3

1-------0-------1-------3-------0--|
1-------0-------1-------3-------1--|
2-------0-------2-------0-------2--|
3-------2-------3-------0-------2--|
3-------2-------3-------2-------0--|
1-------0-------1-------3----------|

CHORUS (Palm Muting)

---------------------------------------------------------------|
---------------------------------------------------------------|
----------------2-2-2-2-2-2-2-2--------------------------------|
3-3-3-3-3-3-3-3-2-2-2-2-2-2-2-2-2-2-2-2-2-2-2-2-5-5-5-5-5-5-5-5|
3-3-3-3-3-3-3-3-0-0-0-0-0-0-0-0-2-2-2-2-2-2-2-2-5-5-5-5-5-5-5-5|
1-1-1-1-1-1-1-1-----------------0-0-0-0-0-0-0-0-3-3-3-3-3-3-3-3|

---------------------------------------------------------------|
---------------------------------------------------------------|
----------------2-2-2-2-2-2-2-2--------------------------------|
3-3-3-3-3-3-3-3-2-2-2-2-2-2-2-2-2-2-2-2-2-2-2-2-5--------------|
3-3-3-3-3-3-3-3-0-0-0-0-0-0-0-0-2-2-2-2-2-2-2-2-5--------------|
1-1-1-1-1-1-1-1-----------------0-0-0-0-0-0-0-0-3--------------|

CHORUS x4

FINAL PART

1-------0-------0--|
1-------0-------1--|
0-------0-------2--|
3-------2-------2--|
3-------2-------0--|
1-------0----------|
"            
Submit corrections

comments powered by Disqus
↑ Back to top | Staind Tabs for Believe. Lyrics for acoustic guitar and electric guitar. 1 Tablatures and chords are parodies/interpretations of the original songs. You may use it for private study, scholarship, research or language learning purposes only