>
 >
Arms Wide Open

Arms Wide Open Guitar Tabs

Staind - Arms Wide Open chords, tabs, tablatures, lyrics

Guitar lessons | Add/correct | Request | Top 50 tabs Artists:  A B C D E F G H I J K L M N O P Q R S T U V W X Y Z 0-9

Arms Wide Open Guitar Tabs – Staind

CD, Sheet music, Poster

Do you like Arms Wide Open? Share with your friends now
Tabs



-------------------------------------
Staind - Arms Wide Open (Creed Cover)
-------------------------------------


Intro & Verse:

1. Guitar:

 |       |       |       |        |       |       |       |        
|--------------------------------|--------------------------------|
|--------------------------------|--------------------------------|
|1-/-2---------------------------|2-/-4--(1)------2---------1h2h1-|
|----------------2------(2)------|--------------------------------|
|--------------------------------|--------------------------------|
|--------------------------------|--------------------------------|

 |       |       |       |        |       |       |       |        
|--------------------------------|--------------------------------|
|--------------------------------|--------------------------------|
|1-/-2----------(1)--------------|2-/-4---2-----------------1h2h1-|
|--------------------------------|--------------------------------|
|--------------------------------|--------------------------------|
|--------------------------------|--------------------------------|


 |       |       |       |        |       |       |       |        
|--------------------------------|--------------------------------|
|--------------------------------|--------------------------------|
|1-/-2----------(2)--------------|1h2-----------------------------|
|--------------------------------|----4----------(4)--------------|
|--------------------------------|--------------------------------|
|--------------------------------|--------------------------------|


 |       |       |       |        |       |       |       |        
|--------------------------------|--------------------------------|
|--------------------------------|--------------------------------|
|1-/-2-----------(2)-------------|1h2-----------------------------|
|--------------------------------|----4----------(4)--------------|
|--------------------------------|--------------------------------|
|--------------------------------|--------------------------------|


2. Guitar:

 |       |       |       |        |       |       |       |        
|--------------------------------|--------------------------------|
|--------------------------------|--------------------------------|
|--------------2-----------------|2---------------2-----------2---|
|--------------------2-----------|----2---------------2---------2-|
|--------4-----------------4-----|----------4---------------4-----|
|--------------------------------|--------------------------------|

 |       |       |       |        |       |       |       |        
|--------------------------------|--------------------------------|
|--------------------------------|--------------------------------|
|1-------------1-----------------|1---------------1-----------1---|
|----2---------------2-----------|----2---------------2---------2-|
|--------4-----------------4-----|----------4---------------4-----|
|--------------------------------|--------------------------------|

 |       |       |       |        |       |       |       |        
|--------------------------------|--------------------------------|
|--------------------------------|--------------------------------|
|0-------------0-----------------|0---------------0-----------0---|
|----0---------------0-----------|----0---------------0---------0-|
|--------2-----------------2-----|----------2---------------2-----|
|--------------------------------|--------------------------------|

 |       |       |       |        |       |       |       |        
|--------------------------------|--------------------------------|
|--------------------------------|--------------------------------|
|0-------------0-----------------|0---------------0-----------0---|
|----0---------------0-----------|----0---------------0---------0-|
|--------2-----------------2-----|----------2---------------2-----|
|--------------------------------|--------------------------------|

Chorus:


 |       |       |       |        |       |       |       |        
|--------------------------------|--------------------------------|
|5-------------------5---------5-|--------------------------------|
|7-----x-x---x---7---7---7-7---7-|6-----x-x---x---6---6---6-6---6-|
|7-----x-x---x---7---7---7-7---7-|7-----x-x---x---7---7---7-7---7-|
|5-----x-x---x---5---5---5-5---5-|7-----x-x---x---7---7---7-7---7-|
|5-----------------------------5-|5---------------5---5---------5-|
"Aaaarm Wide Opeeeen..."

 |       |       |       |        |       |       |       |        
|--------------------------------|2---2---2-2-2-----2---2---2-2-2-|
|5---------------5---5---5-5---5-|3---3---3-3-3-----3---3---3-3-3-|
|6-----x-x---x---6---6---6-6---6-|4---4---4-4-4---x-4-x-4---4-4-4-|
|6-----x-x---x---6---6---6-6---6-|4---4---4-4-4---x-4-x-4---4-4---|
|4-----x-x---x---4---4---4-4---4-|2---2---2-2-2---x-2-x-2---2-----|
|4-------------------------------|2---------2-------2-------2-----|

Outro:

 |       |       |       |        |       |       |       |        
|--------------------------------|--------------------------------|
|5-----x-x---x-------x-x-x-5-5---|4-------------------------4-----|
|6-----x-x---x-6-----x-x-x-6-6-6-|5-------------5-----------5-5-5-|
|7-----x-x---x-7-----x-x-x-7-7-7-|6-----x-x---x-6-----x-x-x-6-6-6-|
|7-----x-x---x-7-----x-x-x-7-7-7-|6-----x-x---x-6-----x-x-x-6-6-6-|
|5-----x-x---x-5-----x-x-x-5-5-5-|4-----x-x---x-4-----x-x-x-4-4-4-|

 |       |       |       |        |       |       |       |        
|--------------------------------|--------------------------------|
|3-------------------------3-----|2-------------------------------|
|4-----x-x---x-4-----x-x-x-4-4-4-|3-----x-x---x-3-----x-x-x-3-3-3-|
|5-----x-x---x-5-----x-x-x-5-5-5-|4-----x-x---x-4-----x-x-x-4-4-4-|
|5-----x-x---x-5-----x-x-x-5-5-5-|4-----x-x---x-4-----x-x-x-4-4-4-|
|3-----x-x---x-3-----x-x-x-3-3-3-|2-----x-x---x-2-----x-x-x-2-2-2-|

 |       |       |       |        
|--------------------------------|
|5-------------------------5-5-5-|
|7-----x-x---x-7-----x-x-x-7-7-7-|
|7-----x-x---x-7-----x-x-x-7-7-7-|
|5-----x-x---x-5-----x-x-x-5-5-5-|
|5-----x-x---x-5-----x-x-x-5-5-5-|

 |       |       |       |        |       |       |       |        
|--------------------------------|--------------------------------|
|5-------------------5---------5-|--------------------------------|
|7-----x-x---x---7---7---7-7---7-|6-----x-x---x---6---6---6-6---6-|
|7-----x-x---x---7---7---7-7---7-|7-----x-x---x---7---7---7-7---7-|
|5-----x-x---x---5---5---5-5---5-|7-----x-x---x---7---7---7-7---7-|
|5-----------------------------5-|5---------------5---5---------5-|

 |       |       |       |        |       |       |       |        
|--------------------------------|2---2---2-2-2-----2---2---2-2-2-|
|5---------------5---5---5-5---5-|3---3---3-3-3-----3---3---3-3-3-|
|6-----x-x---x---6---6---6-6---6-|4---4---4-4-4---x-4-x-4---4-4-4-|
|6-----x-x---x---6---6---6-6---6-|4---4---4-4-4---x-4-x-4---4-4---|
|4-----x-x---x---4---4---4-4---4-|2---2---2-2-2---x-2-x-2---2-----|
|4-------------------------------|2---------2-------2-------2-----|

 |       |       |       |        |       |       |       |        
|--------------------------------|--------------------------------|
|5-------------------5---------5-|--------------------------------|
|7-----x-x---x---7---7---7-7---7-|6-----x-x---x---6---6---6-6---6-|
|7-----x-x---x---7---7---7-7---7-|7-----x-x---x---7---7---7-7---7-|
|5-----x-x---x---5---5---5-5---5-|7-----x-x---x---7---7---7-7---7-|
|5-----------------------------5-|5---------------5---5---------5-|

 |       |       |       |        |       |       |       |        
|--------------------------------|x---x---------------------------|
|5---------------5---5---5-5---5-|x---x---2-----2-----4---2\------|
|6-----x-x---x---6---6---6-6---6-|x---x-----2-----2---------------|
|6-----x-x---x---6---6---6-6---6-|x---x-------4-----4-------------|
|4-----x-x---x---4---4---4-4---4-|x---x---------------------------|
|4-------------------------------|x-------------------------------|





Comments


Popular Staind tabs & chords
How About You Bass Tabs
Mudshovel 2 Bass Tabs
Black Chords
Epiphany Chords
Awareness Tabs
Cant Believe 3 Tabs
Excess Baggage 3 Tabs
Fill Me Up 3 Tabs
So Far Away 10 Tabs
Fray Ukulele


Song lyrics



↑ Back to top | Tablatures and chords are parodies/interpretations of the original songs. You may use it for private study, scholarship, research or language learning purposes only
© 2014 AZChords.com Contact us | Privacy policy | DMCA | Add/correct tabs | Request tabs | Top 50 tabs