» » »

Staind, A Flat Tabs (ver.4)

Artists:  A B C D E F G H I J K L M N O P Q R S T U V W X Y Z # 

A Flat Tabs (ver.4)

Staind Tabs
 Rating:
4/5 (4 votes)
A Flat lessons Tabs too difficult? Try these video lessons and learn fast
1
                Riff A
Ab -----------------|
Eb -----------------|
B  -----------------|
Gb -5---5---5---5h6-|
Db --5---5---5------|
Ab ---5---5---5-----|

Riff B
|------------------------------------------|
|------------------------------------------|
|------------------------------------------|
|-12-12-12-12/13-13------------------------|
|-10-10-10-10/11-11-0-8h10-1-1-1-1-2-1-0---|
|-10-10-10-10/11-11-0-8h10-1-1-1-1-2-1-0---|
                           . . . .

Riff C
|------------------------------------------------------------|
|------------------------------------------------------------|
|------------------------------------------------------------|
|------------------------------------------------------------|
|-8h10-8-8h10-8-8h10-8-8h10-8-8h10-8-8h10~~~-1-1-1-1-2-1-0---|
|-8h10-8-8h10-8-8h10-8-8h10-8-8h10-8-8h10~~~-1-1-1-1-2-1-0---|
       .      .      .      .      .

Riff D
|-------------|
|-------------|
|-------------|
|-----12---10-|
|---9-----8---|
|-9------8----|

Riff E
|----------------------------------------|
|----------------------------------------|
|----------------------------------------|
|----------------------------------------|
|-12-10-11-9-8-10-x-x-9-11-10-8-8-10-x-x-|
|-12-10-11-9-8-10-x-x-9-11-10-8-8-10-x-x-|

Riff F
|--------------------------------------|
|--------------------------------------|
|--------------------------------------|
|-12-12-12-12/13-13--------------------|
|-10-10-10-10/11-11-0-0-8h10-0-0-12/11-|
|-10-10-10-10/11-11-0-0-8h10-0-0-10/-9-|
                    . .      . .
            
Submit corrections

comments powered by Disqus
↑ Back to top | Staind Tabs for A Flat. Lyrics for acoustic guitar and electric guitar. 1 Tablatures and chords are parodies/interpretations of the original songs. You may use it for private study, scholarship, research or language learning purposes only