» » »

Plenty More Tabs (ver.1)

Artists:  A B C D E F G H I J K L M N O P Q R S T U V W X Y Z # 

Plenty More Tabs (ver.1)

Squirrel Nut Zippers
Rating:
3/5 (1 vote)

Hard to play? Try these video lessons and learn fast.
                #------------------------------------------------------------------------------##
#

"Plenty More" by the Squirrel Nut Zippers, off of their
debut lp "The Inevitable..."
(Maxwell/Ennslin)

4/4 Swing

Intro and instrumental "chorus"

The chords are written on top of the tab.
These same chords are repeated throughout the song, but the solo is
only played between verses.

     Bb                            F
e------------------------8---------------------------|
B---------8-10-8-10-8-10---10-8-10-------------------|
G----7-10--------------------------10-7--------------|
D-10------------------------------------10-----------|
A----------------------------------------------------|
E----------------------------------------------------|

     Bb                            F
e------------------------8---------8-8-8-------------|
B---------8-10-8-10-8-10---10-8-10-------------------|
G----7-10--------------------------------------------|
D-10-------------------------------------------------|
A----------------------------------------------------|
E----------------------------------------------------|

     Bb    A      F            Bb       A       G ....
e-10----10-9----9-10---------------------------------|
B----10------10------10-10-----10----10-8------------|
G---------------------------------10------10-9-7-----|
D----------------------------------------------------|
A----------------------------------------------------|
E----------------------------------------------------|

     Bb                            F
e------------------------8---------------------------|
B---------8-10-8-10-8-10---10-8-10-------------------|
G----7-10--------------------------10-7--------------|
D-10------------------------------------10-----------|
A----------------------------------------------------|
E----------------------------------------------------|

Lyrics

They may walk hand in hand
Like lovers through the market square
Selecting leather goods
Pretending that they just don't care
They say all the boys are monsters,
All the girls are whores....
So when you lose the one you love
There's always plenty more!

They may be in a club
All dressed up waiting to meet you
Or in some (garret bleak?)
Dirparing over what to do
All the girls are monsters
All the boys are whores
So when you lose the one you love
There's always plenty more!

So when you lose the one you love
There's always plenty more!
(repeat)
(repeat)
(repeat)

Enjoy!
--Clay
            
Hard to play? Try these video lessons and learn fast. | Correct




comments powered by Disqus
↑ Back to top | Tablatures and chords are parodies/interpretations of the original songs. You may use it for private study, scholarship, research or language learning purposes only