» » »

Squirrel Nut Zippers, I'm Coming Home For Christmas Chords (ver.1)

Artists:  A B C D E F G H I J K L M N O P Q R S T U V W X Y Z # 

I'm Coming Home For Christmas Chords (ver.1)

Squirrel Nut Zippers Tabs
 Rating:
4/5 (4 votes)
I'm Coming Home For Christmas lessons Tabs too difficult? Try these video lessons and learn fast
                Chords:

1. |0|-|-|-|-|
   |0|-|-|-|-|
   | |1|-|-|-|
   | |-|2|-|-|
   | |-|2|-|-|
   |0|-|-|-|-|

2. |0|-|-|-|-|
   | |-|2|-|-|
   | |-|2|-|-|
   | |-|2|-|-|
   |0|-|-|-|-|
   |x|-|-|-|-|

3. |0|-|-|-|-|
   |0|-|-|-|-|
   | |-|2|-|-|
   | |1|-|-|-|
   | |-|2|-|-|
   |x|-|-|-|-|

Strumming pattern: (D = Downstroke, U = Upstroke)

     D  D  U  D  U
| |-----0--0--0--0--| |
| |-----0--0--0--0--| |
| |-----1--1--1--1--| |
| |-----------------| |
| |-----------------| |
| |--0--------------| |


Intro:
| |-----0--0--0--0-----0--0--0--0--| |
| |-----0--0--0--0-----0--0--0--0--| |
| |-----1--1--1--1-----1--1--1--1--| | x2
| |--------------------------------| |
| |-----------------2--------------| |
| |--0-----------------------------| |

Rest of the song:
The le--aves  on the tre----es, are fa-------llin

| |-----0--0--0--0-----0--0--0--0-----0--0--0--0-----0--0--0--0--| |
| |-----0--0--0--0-----0--0--0--0-----2--2--2--2-----2--2--2--2--| |
| |-----1--1--1--1-----1--1--1--1-----2--2--2--2-----2--2--2--2--| |
| |--------------------------------------------------------------| |
| |-----------------2--------------0-----------------------------| |
| |--0--------------------------------------------0--------------| |

Blo--ssoms--- Once blooming     have wither-ed and di----------ed
                                                     DD U  U     DD U  U
| |-----0--0--0--0-----0--0--0--0-----0--0--0--0-----00-0--0-----00-0--0-| |
| |-----0--0--0--0-----0--0--0--0-----0--0--0--0-----00-0--0-----00-0--0-| |
| |-----1--1--1--1-----1--1--1--1-----1--1--1--1-----22-2--2-----22-2--2-| |
| |--------------------------------------------------11-1--1-----11-1--1-| |
| |-----------------2-----------------------------2-----------2----------| |
| |--0-----------------------------0-------------------------------------| |

The  seaso-------n is  t---urning to  Chri----stmas

| |-----0--0--0--0-----0--0--0--0-----0--0--0--0-----0--0--0--0--| |
| |-----0--0--0--0-----0--0--0--0-----2--2--2--2-----2--2--2--2--| |
| |-----1--1--1--1-----1--1--1--1-----2--2--2--2-----2--2--2--2--| |
| |--------------------------------------------------------------| |
| |-----------------2--------------0-----------------------------| |
| |--0--------------------------------------------0--------------| |

I'm longing        to   be   by   my  de---ar  mother's side.....
                                                                        
| |-----0--0--0--0-----0--0--0--0-----0--0--0--0-----0--0--0--0--| |
| |-----0--0--0--0-----0--0--0--0-----0--0--0--0-----0--0--0--0--| |
| |-----1--1--1--1-----1--1--1--1-----2--2--2--2-----1--1--1--1--| |
| |-----------------------------------1--1--1--1-----------------| |
| |--------------------------------2-----------------------------| |
| |--0--------------0-----------------------------0--------------| |

Thank you :)
-Johnny
            
Submit corrections

comments powered by Disqus
↑ Back to top | Squirrel Nut Zippers Chords for I'm Coming Home For Christmas. Lyrics for acoustic guitar and electric guitar. Tablatures and chords are parodies/interpretations of the original songs. You may use it for private study, scholarship, research or language learning purposes only