» » »

Squarepusher, Tensor In Green Bass tabs (ver.1)

Artists:  A B C D E F G H I J K L M N O P Q R S T U V W X Y Z # 

Tensor In Green Bass tabs (ver.1)

Squarepusher Tabs
Rating:
0/5 (0 votes)
Tensor In Green lessons Tabs too difficult? Try these video lessons and learn fast
                squarepusher
tensor in green
(most of it)

|-------------------------------------------|
|-------6h7-6----------------8h10-8-7----7--|
|----7--------7----7-7--7-------------10----|
|-9--------------9-----9--------------------|
								1st    2nd
|---------------------------------------8-6-|------|-11-9-|
|-------6-7--------------------8h10-8-7-----|-8-10-|------|
|----7------7------10-10--10----------------|------|------|
|-9---------0-----9-----9-------------------|------|------|

fast
|----------------------------------------|
|-------------------------7---------8----|
|-----7---------8-----9-9---9-10-10---10-|
|-9-9---9-10-10---10---------------------|

|-------------------------------------------|
|--------------------------11----------9----|
|-----7---------8----12-12----12-10-10---10-|
|-9-9---9-10-10---10------------------------|

|----------------------------------------|
|-------------------------7---------8----|
|-----7---------8-----9-9---9-10-10---10-|
|-9-9---9-10-10---10---------------------|

						     1st				2nd
|------------------------|-------------------|-------12----------9----|
|-------12----------9----|-------------------|-14-14----14-10-10---10-|
|-14-14----14-10-10---10-|------10--------7--|------------------------|
|------------------------|12-12----12-8-8--8-|------------------------|
            

comments powered by Disqus
↑ Back to top | Squarepusher Bass for Tensor In Green. Lyrics for acoustic guitar and electric guitar. Tablatures and chords are parodies/interpretations of the original songs. You may use it for private study, scholarship, research or language learning purposes only