» » »

Squarepusher Tabs (ver.1)

Artists:  A B C D E F G H I J K L M N O P Q R S T U V W X Y Z # 

Squarepusher Tabs (ver.1)

Squarepusher
Rating:
0/5 (0 votes)

Hard to play? Try these video lessons and learn fast.
                "(Theme)
(Intro)
you have to listen to the song while looking at tab because it makes it sooo mush 
easier. if any mistakes please comment, thanx

this is the first section fo the song.

e--------------------------------------------------------------|
B--8~---8----8~---8----8----8~---8----8~---8----8~-------------|
G--7~---7----7~---7----7----7~---7----7~---7----9~-------------|
D------------6~---6----6--------------6~---6----10~------------|
A--7~---7-------------------7~---7-----------------------------|
E------------6~---6----6--------------6~---6----10~------------|

e------------------------------------------------|
B--8~---8----8~---8----8----7~--6~--8~--8--4~----|
G--7~---7----7~---7----7----7~--7~--9~--7--5~----|
D------------6~---6----6----7~--8~--10~-8--6~----|
A--7~---7----------------------------------------|
E------------6~---6----6----7~--8~--8~-6--4~-----|

this is the transition in to the next part
e----------------------------------------------|
B---7---6--8---5--7--7--6---8--6---------------|
G---7---7--9---5--7--6--5---7--5---------------|
D---7---8--10--5--7--5------8--6---------------|
A--------------------6--5----------------------|
E---7---8--8---5--7-----3---6--4---------------|

this is for the second part
e------------------------------------------------------------|
B--8~----8~----8~----8~--10~---8~---8~--10~---7~---8--7~-----|
G--7~----9~----7~----9~--9~----7~---9~--9~----7~---7--8~-----|
D-------10~----------10~-10~--------10~-10~---9~---9--9~-----|
A--7~----------7~--------------7~----------------------------|
E--------8~----------8~--10~--------8~--10~---7~---7--7~-----|

this is the third part
e--------------------------------------------------------|
B--8--7~---8--5~---10-8--6~---8--7~---8--5~---10-8--8~---|
G--7--7~---9--5~---9--7--5~---7--7~---9--5~---9--7--7~---|
D-----7~---10-5~---10-8--6~------7~---10-5~---10-8--8~---|
A--7--------------------------7---------------------6~---|
E-----7~---8--5~---8--6--4~------7~---8--5~---8--6-------|

this is the fourth part
e----------------------------------------------|
B--8-5-7~---8--7-5~---8-5-7~---5-7-8~----------|
G--7-5-7~---9--7-5~---7-5-7~---5-7-9~----------|
D----5-7~---10-7-5~-----5-7~---5-7-10~---------|
A--7------------------7------------------------|
E----5-7~---8--7-5~-----5-7~---5-7-10~---------|

this is the final part
e-----------------------------------------------|
B--8~----7~----5~----8~-------------------------|
G--7~----7~----5~----9~-------------------------|
D--------7~----5~----10~------------------------|
A--7~-------------------------------------------|
E--0~----7~----5~----10~------------------------|

listen to te song to work out the structure of the parts

hope you enjoy :)
"            
Hard to play? Try these video lessons and learn fast. | Correct




comments powered by Disqus
↑ Back to top | Tablatures and chords are parodies/interpretations of the original songs. You may use it for private study, scholarship, research or language learning purposes only