» » »

Squarepusher, Iambic 9 Poetry Bass tabs (ver.1)

Artists:  A B C D E F G H I J K L M N O P Q R S T U V W X Y Z # 

Iambic 9 Poetry Bass tabs (ver.1)

Squarepusher Tabs
Rating:
0/5 (0 votes)
Iambic 9 Poetry lessons Tabs too difficult? Try these video lessons and learn fast
                This is the first tab I have put on the internet, I usualy don't bother but I tabbed 
out for someone else just now so I thought I may as well copy and paste it here for you.
Usualy internet tab is bull and is not worth your time, so below the tab I will leave 
tips that I find usefull when I'm trying to learn something.

H = harmonics
Use your thumb for the route notes when there are three notes to play at the same time.


G----------------------------5h---------------------------7h-----------|
D------5h---------4h-----3h-------4h---5h----------7h------------------|
A------5h------------------------------5h----------7h--------9h--------|
E------3----------5--------------------7h----------9-------------------|

G--------------3h------5h--------------------7h----------------------------|
D---5h-------------4h----4h------5h----------7h--7h------------------------|
A---5h---------------------------5h--------------------7h------------------|
E---3----------5--------------5--7h----------9--------------7h-------------|

- Try to be figuring stuff out as much as possible dont come to the internet to find 
its usualy bullsh*t.

- Be persistent and have pay atention to detail, dont half guess it and then go off 
people you know how to play the song and start tabbing it out on the internet to have other 
learn it wrong too

- Once you have a rough idea of a song, play it along with the original recoding, 
out for differences and clashes in what you are playing and what the original artist is 
until you have ironed out all the diferences

- Have standards, dont do a half arsed job of it. Practice every day and be original.

Matt Mitchell,
            

comments powered by Disqus
↑ Back to top | Squarepusher Bass for Iambic 9 Poetry. Lyrics for acoustic guitar and electric guitar. Tablatures and chords are parodies/interpretations of the original songs. You may use it for private study, scholarship, research or language learning purposes only