» » »

Squarepusher, Hello Meow Bass tabs (ver.2)

Artists:  A B C D E F G H I J K L M N O P Q R S T U V W X Y Z # 

Hello Meow Bass tabs (ver.2)

Squarepusher Tabs
 Rating:
4/5 (4 votes)
Hello Meow lessons Tabs too difficult? Try these video lessons and learn fast
                

Slap Style.

Verse
G|-------------------------||-------------5-5---7-7----|
D|--7-7--7-7--3-3--5-5-----||--7-7--7-7----------------| 
A|-------------------------||-----------3----55--------|     X16
D|7---77----3----55--------||7---77--------------------|

Chorus
G|-----------------------------------------------|
D|--7-7--7-7--3-3--3-3--0-0--0-0--4-4--4-4-------|
A|-----------------------------------------------|              X4 
D|7---77----3----33----0---00----4---44----------|

verse riff X4


then do a 16 note fingerstyle groove over D
return to first verse for remainder
            
Submit corrections

comments powered by Disqus
↑ Back to top | Squarepusher Bass for Hello Meow. Lyrics for acoustic guitar and electric guitar. Tablatures and chords are parodies/interpretations of the original songs. You may use it for private study, scholarship, research or language learning purposes only