» » »

Delta-v Bass tabs (ver.1)

Artists:  A B C D E F G H I J K L M N O P Q R S T U V W X Y Z # 

Delta-v Bass tabs (ver.1)

Squarepusher
Rating:
5/5 (3 votes)

Hard to play? Try these video lessons and learn fast.
                -------------------------------------------------------------------------------
-------------------------------------------------------------------------------


Tuning: EADG


Hi guys. This is the trickiest thing I've tabbed. I can barely play it.
Please don't vote this down unless you can play the song properly at speed,
because if you can't play this it'll probably sound like bad tab, even though
it isn't. I think it's mostly correct! Any corrections are very welcome!



---



This bit sounds like it's bitcrushed:
   1   2   3   4   1   2   3   4   1   2   3   4   1   2   3   4   
G|---------------|---------------|---------------|---------------|
D|---------------|---------------|---------------|---------------| play
A|-7-6---5-------|-4-3-----2-----|---------------|---------------| four
E|---------------|---------------|-1---1---1---1-|-5-5---5---555-| times
timing isn't exact, you need to get a feel for it!



   1   2   3   4   1   2   3   4   1   2   3   4   1   2   3   4   1   2   3   4
G|-9-8---7---------6-5---4---------------------------------------|-------------7-8
D|---------------------------------3---3---3---3---7-7---7---777-| 7-7---7---7---|
A|-7-6---5---------4-3---2---------------------------------------|-------------5-6
E|---------------------------------1---1---1---1---5-5---5---555-|-5-5---5---5---|
play once with first ending, then play twice with second ending here       ^^^^^^^



    4   1   2   3   4   5   6   7   8   1   2   3   4   5   6   7   8   \
G-|---|-------------------------------|-------------------------------| | this whole
D-|-2-0-2-----------------------------|-------------------------0-----| | section i'm
A-|---|-------------------5-4---------|-------------------5-4-------4-| | calling "the
E-|---|-------2---3---0-3-----3-0-----|-0-----2---3---0-3-----3-------| | verse", as
                                                                        | it's played
        1   2   3   4   5   6   7   8   1   2   3   4   5   6   7   8   | a few times
    G-|-------------------------------|-------------------------2-----0 | throughout
    D-|-----------------------------2/0-2/0-------------------------0-| |
    A-|-------------------5-4---------|-------------------5-4-----0---| |
    E-|-0-----2---3---0-3-----3-0-----|-----0-2---3---0-3-----3-------| |
                                                                        |
    4   1   2   3   4   5   6   7   8   1   2   3   4   5   6   7   8   |
    G-|-------------------------------|-------------------------------| |
    D-|-------------------------------|-------------------------0-----| |
    A-|-------------------5-4---------|-------------------5-4-------4-| |
    E-|-------2---3---0-3-----3-0-----|-0-----2---3---0-3-----3-------| |
                                                                        |
        1   2   3   4   5   6   7   8   1   2   3   4   5   6   7   8   |
    G-|-------------------------------|-----------------------------2-3 |
    D-|-----------------------------2/0-2/0---------------3-2---3-----| |
    A-|-------------------5-4---------|-------0---1-----1-----1---1---| |
    E-|-0-----2---3---0-3-----3-0-----|-----0---------0---------------| /



   1   2   3   4   1   2   3   4   1   2   3   4   1   2   3   4   1   2   3   4   (just hammer)
G|-9-8---7---------6-5---4---------------------------------------|-------------7-8-2p0h2p0h2p0h2-|
D|---------------------------------3---3---3---3---7-7---7---777-| 7-7---7---7---|---------------|
A|-7-6---5---------4-3---2---------------------------------------|-------------5-6---------------|
E|---------------------------------1---1---1---1---5-5---5---555-|-5-5---5---5---|---------------|
play once with first ending, then play twice with second ending here       ^^^^^^^,      /|\
                                                                  then once with this one |



PLAY VERSE! then:



G|-----------------------------------------------------------------|
D|-5-5-5-5-4-4-4-4-2-2-2-2-0-0-0-0-5-5-5-5-4-4-4-4-7-7-7-7-5-5-5-5-7
A|--7-7-7-7-5-5-5-5-0-0-0-0---------7-7-7-7-5-5-5-5-0-0-0-0--------|
E|--------------------------3-3-3-3-------------------------3-3-3-3|

G|-----------------------------------------------------------------|
D|-5-5-5-5-4-4-4-4-2-2-2-2-5-4-2-0-5-5-5-5-4-4-4-4-7-7-7-7-9-9-9-9-|
A|5-7-7-7-7-5-5-5-5-0-0-0-0---------7-7-7-7-5-5-5-5-0-0-0-0-10101010
E|--------------------------3-3-3-3------these are 10s, btw-^-^-^-^|


                                                                               __
Variations of the following riff are played. Some bits are missing! see below '  \
   v       v       v       v       v       v       v                    /        v        \
G|-----------------------------------------------------|     Runthrough:| 1 2 3 4 5 6 7 8 |
D|-----------------5-----------------------------------|     Missing: A |     x   x       |
A|---------3h4-3h4---------3h4-3h4-0-------3h4-3h4-----|              B |       x   x   x |
E|-0---0-------------------------------------------3---|              C |   x   x   x   x |
   A   A                                   B B B B C                    \                 /



   1   2   3   4   1   2   3   4   1   2   3   4   1   2   3   4
G|-9-8---7---------6-5---4---------------------------------------|
D|---------------------------------3---3---3---3---7-7---7---777-|
A|-7-6---5---------4-3---2---------------------------------------|
E|---------------------------------1---1---1---1---5-5---5---555-|

                                                   1   2   3   4
play this bad boy through again,                G|---------------|
with the endings you see to your                D|-7-7---7---5-5-| second
right taking the place of the last              A|---------------| variant
bar for each run through                        E|-5-5---5---3-3-|
                                                
NOW PLAY THE VERSE THREE TIMES!!                   1   2   3   4
                                                G|---------------|
Hope you enjoyed the tab! :)                    D|-7-7---7---5-5-| third
                                                A|---------------| variant
| KEY:                                          E|-5-5---5---3-3-|
| /  slide up                                               
| \  slide down                                    1   2   3   4
| h  hammer-on                                  G|-----5-7-------|
| p  pull-off                                   D|-5-7-----------| fourth
| ~  vibrato                                    A|---------------| variant
| +  harmonic                                   E|---------------|
            
Hard to play? Try these video lessons and learn fast. | Correct




comments powered by Disqus
↑ Back to top | Tablatures and chords are parodies/interpretations of the original songs. You may use it for private study, scholarship, research or language learning purposes only