» » »

Squad Five-O, The Youth Bass tabs (ver.1)

Artists:  A B C D E F G H I J K L M N O P Q R S T U V W X Y Z # 

The Youth Bass tabs (ver.1)

Squad Five-O Tabs
 Rating:
4/5 (4 votes)
The Youth lessons Tabs too difficult? Try these video lessons and learn fast
1
                The Youth
Squad Five-O
What I Believe

the intro and the chorus are the same:
G|-----------------------------------------------------------------|
D|-----------------------------------------------------------------|
A|-----------------3-3-3-3-5-5-5-5-----------------3-3-3-3-5-5-5-5-|
E|-3-3-3-3-3-3-3-3-----------------3-3-3-3-3-3-3-3-----------------|

G|-----------------------------------------------------------------|
D|-----------------------------------------------------------------|
A|-----------------3-3-3-3-5-5-5-5-3-3-3-3-3-3-3-3-5---------------|
E|-3-3-3-3-3-3-3-3-------------------------------------------------|

verse riff 1
G|----------------------------------------------------------|
D|-------------------5-5-3-5--5------------------------5--3-|
A|-----5-5-3-5--5-------------------5-5-3-5--5-----3h5------|
E|-3-3------------3-3-----------3-3------------3-3----------|

verse riff 2
G|---------------------------------------------|
D|---5-3-----------5-3-----------5-3---5-------|
A|-3-----5-------------5-3---3h5-----3---5-3---|
E|---------3-3-3-3---------3-----------------3-|

last (but not least) . . . drumroll please . . . 
THE PLAYING ORDER! *crowd cheers*

intro 
verse riff 1 - 2x
verse riff 2 
chorus 
verse riff 1 - 2x
verse riff 2
chorus - 3x
end on G

well, that's it, have fun, don't hurt yourself, questions, comments,
            
Submit corrections

comments powered by Disqus
↑ Back to top | Squad Five-O Bass for The Youth. Lyrics for acoustic guitar and electric guitar. 1 Tablatures and chords are parodies/interpretations of the original songs. You may use it for private study, scholarship, research or language learning purposes only