» » »

Squad Five-O, Lost In The City Tabs (ver.1)

Artists:  A B C D E F G H I J K L M N O P Q R S T U V W X Y Z # 

Lost In The City Tabs (ver.1)

Squad Five-O Tabs
 Rating:
4/5 (4 votes)
Lost In The City lessons Tabs too difficult? Try these video lessons and learn fast
                Squad Five-O
Lost In the City

^ = bend up
intro
e---------------------------------------------------------------------------------------------------
B-------------------------------------------------------------------3-3-----------------------------
G-------------------------------------------------------------------2-2-------------------------------
D-2-2-------------------------------------------------------------------5-2-2-2-2-------------
A-0-0-^3 ^4-0-0-3-2-0-0-2-2--3-2-0-0-0-^3-^ 4- 3-2-0-------3-0-0-0-0------------
E------------------------------0-0--------------------------------------------------------------

e
B----------------------33---------
G----------------------22---------
D-2-2-2------------------------2        repeat
A-0-0-0-5--2-2-2-------3-2-0-
E---------3--0-0-0--------------

PreChorus
e-------------------------------------------
B--3----3----3------------------------------
G--2----2----2--------------------------------
D-----2----2---2-------------------------------
A-----0----0---0---2-2-2-2-2-2-2-2------------
E--------------------0-0-0-0-0-0-0-0---------

chorus
e------------------------------------------------------------------------------------
B----------3-3-3--------------------------3-3-3------------------------------------
G----------2-2-2--------------------------2-2-2---------------------------------
D-2--2-2---------2-2-2---------2-2-2---------5-5-5------------2---------------
A-0--0-0---------0-0-0--2-2-2-0-0-0--------3-3-3----3-2-0--0--2-2-2-2-2-
E---------------------------0-0-0-------------------------------------- 0-0-0-0-0-

INTRO
VERSE
PRECHORUS
CHORUS

e--------------------------------------------------------
B------------------------------------------------------
D---------------------------------------------------
G-2-----------------------2-----------2-------------
A-0--6---4---2--2-2-2--0-6--4--2--0------------
E-----4---2---0--0-0-0----4--2--0----------------

PRECHORUS
CHORUS
            
Submit corrections

comments powered by Disqus
↑ Back to top | Squad Five-O Tabs for Lost In The City. Lyrics for acoustic guitar and electric guitar. Tablatures and chords are parodies/interpretations of the original songs. You may use it for private study, scholarship, research or language learning purposes only